Metallica - I Disappear Chords & Tabs

 

I Disappear Chords & Tabs

Metallica Chords & Tabs

Version: 5 Type: Tab 0 ratings
1 star 2 stars 3 stars 4 stars 5 stars
comments

I Disappear Tab

Metallica 

I Disappear

Cool song if u have a wha pedal. If not too bad, improvise 
like i use too. If any one thinks this is wrong email me
ecca@ericsmail.com

All guitars Tuned down one half step
^= bend half step
*=hold note
#=harmonics
^^= Bend Full Step


Intro(with wah)

eb--------------------------------------------
Bb--------------------------------------------
Gb-----------9^---------------9^--------------  x3
Db--------------------------------------------
Ab-----------7^---------------7^--------------
Eb-----0-----------0-----0--------------------

Main Riff
                               then
eb----------------------     ----------------------------------------
Bb----------------------     ----------------------------------------
Gb---------------------- x3  ----------------------------------------
Db----------------------     ---------------------------------------- then into the verse riff
Ab-----------7^----5----     -----------7^-----5------5-----5--------
Eb----0------7^----7----     ----0------7^-----7------3-----3--------



Verse Riff        James

               pm.......
eb-----------------------         ------------------------------------
Bb-----------------------         ------------------------------------
Gb----------------------- x3 then ------------------------------------
Db-----------------------         ------------------------------------
Ab-(5)---2-----2----2----         ---2-----5--5-----------------------
Eb-(3)---0-----0----0----         ---0-----3--3-----------------------


Kirk

eb------------------------------------------------------------------------------------------
Bb------------------------------------------------------------------------------------------
Gb------------------------------------------------------------------------------------------
Db------------------------------------------------------------------------------------------
Ab----5-----------------------------------------5/7------------------------------------5---5
Eb----3----0-------0--------0------0-------0---------0-------0-----0------0------------3---3



Bridge
James



eb----------------------------------------------------------------------------------
Bb----------------------------------------------------------------------------------
Gb----------------------------------------------------------------------------------
Db--3---3/-2--2/-7--7---------------------------------------------------------------
Ab----------------------------------------------------------------------------------
Eb--5---5/-4--4/-5--5---0---2---0---------------------------------------------------


Kirk



[ Tab from: http://www.guitartabs.cc/tabs/m/metallica/i_disappear_tab_ver_5.html ]
eb--------------------------------------------------------------------------------------------
Bb--------------------------------------------------------------------------------------------
Gb-2---2-----------6---6------4------4/-6/-7--------------------------------------------------
Db----------7--7-----------7------7-----------------------------------------------------------
Ab-4---4-----------4---4------2------2/-4/-5--------------------------------------------------
Eb----------5--5-----------5------5-----------0-----------------------------------------------



Sliding in verse just before chorus(kirk)
James plays verse riff


eb----------------------------------------------------------------------------------------
Bb------12\-----------------------*----------12\------------------------------------------
Gb------12\----------------------------------12\------------------------------------------
Db------12\-----------------------*----------12\------------------------------------------
Ab----------------------------------------------------------------------------------------
Eb--0-------------0------------0---------0--------------0----------0----------------------




eb---15#-14#------------------------------------------
Bb-----------15#--------------------------------------
Gb----------------------------------------------------
Db----------------12#-11#-----------------------------
Ab----------------------------------------------------
Eb------------------------12#-------------------------




solo


eb-------------------------------------    --------------------------------------------------
Bb-----8--8------8--------------12^----    --------------------------------------------------                                                      
Gb-----7--7------7---------------------    --14-12----14---12--14-12------14-12-----14-12----                                                    
Db-----6--6------6--------12/14--------  x2--------14--------14--------14------12---------14-                                                      
Ab-----7--7------7---------------------    --------------------------------------------------                                                      
Eb--0-----------------14---------------    --------------------------------------------------                                                      
                  (over all play twice)
                              


interlude: James                                  pm.............................    

eb--------------------------       ----------------------------------------------
Bb--------------------------       ----------------------------------------------
Gb--------------------------       ----------------------------------------------
Db--------------------------x3     ----------------------------------------------
Ab-2------------------5----5       -2--------------5-----4----3------------------
Eb-0---3^^/0----------3----3       -0---3^^/0------3-----2----1------------------





kirk                                             pm....................

eb-------------------------        ------------------------------------
Bb-------------------------        ------------------------------------
Gb------------9^----------- x3     -----9^-----------------------------
Db-------------------------        ------------------------------------
Ab------------7^-----5----5        -----7^-------5------4------3-------
Eb--------0----------3----3        -0------------3------2------1-------





listen to the song and you should be able to figure out the order of the song.
This is the right way how to play it, u think you can do better email and i'll see
ecca@ericsmail.com









Comments