Metallica - I Disappear Chords & Tabs

 

I Disappear Chords & Tabs

Metallica Chords & Tabs

Version: 4 Type: Tab 0 ratings
1 star 2 stars 3 stars 4 stars 5 stars
comments

I Disappear Tab

I DISAPPEAR BY METALLICA:
                              TABBED BY ANDREW

HERE IS THE CORRECT WAY TO PLAY IT
AS TOLD BY KIRK IN AN INTERVIEW I HAVE.

HERE ARE ALL THE MAIN RIFFS AND SOLOS IT TOOK
AGES TO TAB OUT SO PLEASE ENJOY:

INTRO RIFF:KIRK                                                                 
|--x-------------------x-------x------||--------------x------x------|
|---x-------------------x-------x-----||---------------x------x-----|
|----x---------9b(9)-----x-------x----||------9b(9)-----x------x----|
|-----x-------------------x-------x---||-----------------x------x---|
|------x-------7b(7)--------x------x--||------7b(7)-------x------x--|
|-------0--------------------0------0-||-(0)---------------0------0-|
               1/2                            1/2    

JAYMZ PLAYS NATURAL HARMONICS PLAYED ON THE LOW E AT 2.9
IN GROUPS OF 4 WITH DIST&FLANGER



MAIN RIFF JAYMZ FIRST THEN BOTH GTRS                                  
|---------|--------------------------||-------------------------|
|---------|--------------------------||-------------------------|
|---------|--------------------------||-------------------------|
|---------|--------------------------||-------------------------|
|---------|------7b(8)(7)---7--------||-------7(8)(7)---5---5---|
|-0-------|-(0)--7b(8)(7)---5----0---||-(0)---7(8)(7)---3---3---|



VERSE RIFF: JAYMZ
|--------------------|---------------|---------------|-------------|
|--------------------|---------------|---------------|-------------|
|--------------------|---------------|---------------|-------------|
|--------------------|---------------|---------------|-------------|
|-(5)--2-----2---2---|-2-----2---2---|-2-----2---2---|-2-----5---5-|
|-(3)--0-----0---0---|-0-----0---0---|-0-----0---0---|-0-----3---3-|
|           |-p.m-|         |-p.m-|         |-p.m-|
|
|
|KIRK:
|--------------------|---------------|---------------|-------------|
|--------------------|---------------|---------------|-------------|
|--------------------|---------------|---------------|-------------|
|--------------------|---------------|---------------|-------------|
|-(5)----------------|-----------5H7-|---------------|-------5---5-|
|-(3)--0-----0---0---|-0-----0-------|-0-----0---0---|-0-----3---3-|



BRIDGE:JAYMZ
|-----------||------------------------|------------------------|
|-----------||------------------------|------------------------|
|-----------||------------------------|------------------------|
|-5----5(5)-||--4----4(4)---7----7(7)-|------------7---7b------|
|-----------||------------------------|---------------------2--|
|-3----3(3)-||--2----2(2)---5----5(5)-|---0--2--0--5---5b---0--|
|
|
|
|KIRK:
|-----------||------------------------|------------------------|
|-----------||------------------------|------------------------|
|-4----4(4)-||--2----2(2)---6----6(6)-|---2--4--2--6---6-------|
|-----------||------------------------|------------------------|
|-2----2(2)-||--0----0(0)---4----4(4)-|---0--2--0--4---4-------|
|-----------||------------------------|---------------------0--|




2 VERSE VARIATION: JAYMZ
|----------------|----------------|--------------|------------|-------|
|----------------|----------------|--------------|------------|-------|
|----------------|----------------|--------------|------------|-------|
|----------------|----------------|--------------|------5---5-|-7--0H2|
|(2)-------------|-2--------------|-2------------|-2----------|-------|
|(0)------0---0--|-0------000---0-|-0-----0---0--|-0----3---3-|-5-----|
|        |-P.M-|         |--P.M--|      |-P.M-|
|  
|
|KIRK
|----------------|----------------|--------------|------------|-------|
|----12\---------|---12\----------|---12\--------|--12\-------|-------|
|----12\---------|---12\----------|---12\--------|--12\-------|-------|
|----12\---------|---12\----------|---12\--------|--12\-------|-------|
|----------------|----------------|--------------|------------|-------|
|(0)------0---0--|-0--------0---0-|-0-----0---0--|-0----3---3-|-2--0--|


 
CHORUS:JAYMZ                                            1st TIME ONLY
|--------------|----------|----------|-----------------|--------------||
|--------------|----------|----------|-----------------|--------------||
|--------------|----------|----------|-----------------|--------------||
|--------------|----------|----------|-----------------|--xx---xx-----||
|--------------|----------|----------|-----------------|--xx---xx-----||
|--------------|----------|----------|-----------------|--xx---xx-----||
|
|
|
|KIRK:ALL THESE NOTES ARE NATURAL HARMONICS
|--------------|----------|----------|-----------------|--------------||
|--------------|----------|----------|-----------------|--------------||
|--5-----------|----------|----------|--5--------------|--------------||
|------4-----5-|----------|----------|------4------5---|--------------||
|--------------|----5-----|----------|-----------------|--5-----------||
|--------------|----------|--12------|-----------------|--------------||

IN THE SECOND VERSE JAYMZ PLAYS SOME MUTED NOTES
AT THE "WENT ON DOWN THAT ROAD" BIT LISTEN TO THE RECORD TO GET 
THE TIMING ANS PHRASE.



2nd CHORUS:JAYMZ W/CLEAN TONE & CHORUS

|-0-------------|-----------|-------------------------|-----0---------|
|----3----------|-----------|-------------------------|-------3-------|
|-------2--0(0)-|----0(0)---|---0H2-2-2---2b(4)(2)p0--|-(0)------2--0-|
|---------------|-----------|-0-----------------------|---------------|
|---------------|-----------|-------------------------|---------------|
|---------------|-----------|-------------------------|---------------|
|
|
|
|KIRK PLAYS THE HARMONICS
|---------------|-----------|------------------------|----------------|
|---------------|-----------|------------------------|----------------|
|---------------|-5---------|------------------------|----------------|
|---------------|-----4--5--|------------------------|----------------|
|---------------|-----------|-5----------------------|----------------|
|---------------|-----------|------------------------|--12------------|




JAYMZ cont:
|-------------------|---------------|------------------|-------------|
|-------------------|---------------|------------------|-------------|
|-(0)---------------|----------0----|-0-2-2-0-2-2b(4)--|-8/(9)--9----|
|-------------------|--------0---0--|------------------|-------------|
|-------------------|---------------|------------------|-6/()7--7----|
|-------------------|---------------|------------------|-------------|
|
|
|
|
|KIRK:N/HARMONICS
|------------------|----------------|------------------|-12----------|
|------------------|----------------|------------------|-------------|
|-5----------------|----------------|------------------|-------------|
|------4-----5-----|----------------|------------------|-------------|
|------------------|----------------|-5----------------|-------------|
|------------------|----------------|------------------|-------------|


[ Tab from: http://www.guitartabs.cc/tabs/m/metallica/i_disappear_tab_ver_4.html ]
JAYMZ:
|---------------------|----------------|------------------------|
|---------------------|----------------|------------------------|
|-8/(9)---9---9---9---|-8/(9)---9---9--|-8/(9)--9---X--12\(11)--|
|---------------------|----------------|------------X-----------|
|-6/(7)---7---7---7---|-6/(7)---7---7--|-6/(7)--7---X--10\(9)---|
|---------------------|----------------|------------------------|
|
|
|
|KIRK:
|---------------------|----------------|------------------------|
|---------------------|----------------|------------------------|
|-5-------------------|----------------|------------------------|
|-----------4-------5-|----------------|------------------------|
|---------------------|----------------|-5----------------------|
|---------------------|----------------|------------------------|



JAYMZ:
|-----------------------|---------------------|-----------------|
|-----------------------|---------------------|-----------------|
|-8/(9)--9-9-9\(8)--9-9-|-8/(9)-9|(8)--9--9---|-8/(9)-9-9-9-9-9-|
|-----------------------|---------------------|-----------------|
|-6/(7)--7-7-7\(6)--7-7-|-6/(7)-7\(6)--7--7---|-6/(7)-7-7-7-7-7-|
|-----------------------|---------------------|-----------------|
|
|
|
|KIRK:
|-12--------------------|---------------------|-----------------|
|-----------------------|---------------------|-----------------|
|-----------------------|-5-------4-----------|-----------------|
|-----------------------|-------------------4-|(4)--------------|
|-----------------------|---------------------|-----------------|
|-----------------------|---------------------|-----------------|



JAYMZ:               IS ALSO USED JUST BEFORE THE 2nd CHORUS STARTS
|-----------------|-----------------|----------------|---------------|
|-----------------|-----------------|----------------|---------------|
|-8/(9)-9-9-9-9-9-|-----------------|----------------|---------------|
|-----------------|-----------------|----------------|---------------|
|-6/(7)-7-7-7-7-7-|-2--------5---2--|-(2)-----5---2--|-(2)-----5---2-|
|-----------------|-0--------3---0--|-(0)-----3---0--|-(0)-----3---0-|
|JAYMZ SLIDES DOWN FROM 15 ON THE LOW E JUST BEFORE THE SOLO
|
|
|KIRK:JUST BEFORE THE SOLO SLIDE TO HIGHEST FRET & BEND THE CRAP OUT OF IT             
|-----------------|-----------------|----------------|---------------|
|-----------------|-----------------|----------------|---------------|
|-----------------|---INTRO RIFF----|---INTO RIFF----|--INTRO RIFF---|
|-----------------|-----------------|----------------|---------------|
|-5---------------|-----------------|----------------|---------------|
|-----------------|-----------------|----------------|---------------|



SOLO:
JAYMZ                        x7   LAST BAR  OF SOLO
|-------------------------------||------------------|
|-------------------------------||------------------|
|-------------------------------||------------------|
|-------------------------------||------------------|
|-*-----------------------------||------------------|
|-0---------------5---5---0-----||--------3---3-----|
| *OMIT ON REPEAT
|
|
|KIRK                         x3                          
|-------------------------------|
|----8-8--8---------------------|
|----7-7--7--------------12b1/4-|
|----6-5--6--------12h14--------|
|----7-7--7---------------------|
|-0-----------/14---------------|


KIRK                              1ST TIME
|----------------------------------------------|
|----------------------------------------------|
|-14-12----14-12----14-12----14-12----14-12----|
|-------14-------14-------14-------14-------14-|
|----------------------------------------------|
|----------------------------------------------|

KIRK                             2nd TIME
|------------------------------------------------|
|------------------------------------------------|
|-14p12----14p12----14p12-----14p12----14b(16)---|
|-------14-------14--------14-------14--------14-|
|------------------------------------------------|
|------------------------------------------------|




JAYMZ                    x3
|--------------------------|----------------------------|
|--------------------------|----------------------------|
|--------------------------|----------------------------|
|--------------------------|----------------------------|
|-2------------------5--5--|-2-----------------5--4--3--|
|-0---3b(5)p(0)------3--3--|-0---3b(5)p(0)-----3--2--1--|
|                                             |--P.M--|
|
|
|KIRK                    x3
|--------------------------|----------------------------|
|--------------------------|----------------------------|
|-----9b(9)----------------|-----9b(9)------------------|
|--------------------------|----------------------------|
|-----7b(7)----------5--5--|-----7b(9)---------5--4--3--|
|-0------------------3--3--|-0-----------------3--2--1--|
       1/2                        1/2         |--P.M--|



JAYMZ:P.M ALL SINGLE NOTES
|----------------------|-----------------------|-----------------------|
|----------------------|-----------------------|-----------------------|
|----------------------|-----------------------|-----------------------|
|----------------------|---------------4-----3-|---------------4-----2-|
|-2--------------4--5--|---------------2-----5-|------3--3--3--2-----0-|
|-0----0--0--0---2--3--|------3--3--3----------|-----------------------|
|     |--P.M--|              |--P.M--|               |--P.M--|
|
|
|KIRK:WITH WAH/WAH
|----------------------|-----------------------|-----------------------|
|----------------------|-----------------------|-----------------------|
|-9--999--999--999--9-9|-8/9--9--9--9--9--9--9-|-8-9--9--9--9--9--9--9-|
|----------------------|-----------------------|-----------------------|
|-7--777--777--777--7-7|-6/7--7--7--7--7--7--7-|-6/7--7--7--7--7--7--7-|
|----------------------|-----------------------|-----------------------|



JAYMZ:
|---------------------|-----------------|-----------------|
|---------------------|-----------------|-----------------|
|---------------------|-----------------|-----------------|
|--------------2------|-----------------|-----------4---5-|
|--------------0--5-4-|-2---------4---5-|-----------2---3-|
|------0--0--0----3-2-|-0---0-0-0-2---3-|-----3-3-3-------|
|     |--P.M--|            |-P.M-|           |-P.M-|
|
|
|KIRK:
|---------------------|-----------------|-----------------|
|---------------------|-----------------|-----------------|
|-8/9--9--9--8/9--9-9-|-8/9-9-9-9-9-9-9-|-8/9-9-9-9-9-9-9-|
|---------------------|-----------------|-----------------|
|-6/7--7--7--6/7--7-7-|-6/7-7-7-7-7-7-7-|-6/7-7-7-7-7-7-7-|
|---------------------|-----------------|-----------------|



JAYMZ:
|-----------------|--------------------------|
|-----------------|--------------------------|
|-----------------|-----------------7----9---|
|-----------4---7-|--------------------------|
|-----------2---5-|--------5--5--5--5----7---|
|-----3-3-3-------|--------------------------|
|    |-P.M-|              |--P.M--|
|
|
|KIRK
|-----------------|--------------------------|
|-----------------|--------------------------|
|-8/9-9-9-9-9-9-9-|-12-12-12-12-14-14-14-14--|
|-----------------|--------------------------|
|-6/7-7-7-7-7-7-7-|-10-10-10-10-12-12-12-12--|
|-----------------|--------------------------|

JAYMZ: THEN PLAYS THE SAME RIFF AGAIN BUT WITHOUT
THE PALM MUTES AND JUST THE CHORDS.AND ENDS THE SONG WITH RIFF
BELOW. 

|-------------------|----------------|-----------------|----------||
|-------------------|----------------|-----------------|----------||
|-------------------|----------------|-----------------|----------||
|----2b(4)(2)-------|--2b(4)(2)------|--2b(4)(2)-------|--5b(7)(5)||
|-2------------5--2-|-----------5--2-|------------5--2-|----------||
|-0------------3--0-|-----------3--0-|------------3--0-|----------||



KIRK:THEN PLAYS THE LAST 4 BARS OF THE OCTAVE RIFF TWICE
AND THEN ENDS THE SONG WITH THE INTRO RIFF.

WELL THATS ABOUT IT.IT TOOK DAMN AGES TO TAB OUT,AND TRUST ME
ALL THE RIFFS ARE CORRECT AND ALL THE RIFFS ARE HERE.SOME OF THEM
ARE OVERDUBED OVER OTHER RIFFS AND I HAVE'NT PUT WHERE THE COME IN
SO JUST LISTEN TO THE RECORD AND YOU WILL SEE WHERE THEY GO.

WELL ITS TIME FOR ME TO DISAPPEAR NOW,HAVE FUN:)TABBED BY ANDREW





Comments