Metallica - I Disappear Chords & Tabs

 

I Disappear Chords & Tabs

Metallica Chords & Tabs

Version: 3 Type: Tab 1 rating
1 star 2 stars 3 stars 4 stars 5 stars
comments

I Disappear Tab

artist: Metallica

SongTitle: I Disappear

Tabs:Written by :Metallica
Mission imposible 2 soundtrack
From:Jonathan Giles
E-Mail: JudgeGiles@Hotmail.com


tune all guitars down 1/2 step
      full    full    full         
Bb-----5-------5-------5-----
Gb---------------------------
Db--2-----2-2-----2-2-----2-2
Ab--2-----2-2-----2-2-----2-2
Eb--0-----0-0-----0-0-----0-0
played with wah wah




      full    full    full
2)            
Gb---------------------------   -------
Db--2-----7-------7-2-----7-2   -5-5--2
Ab--2--7--7-2--7--7-2--7--7-2   -5-5--2
Eb--0--7--5-0--7--5-0--7--5-0   -3-3--0
this heavier guitar comes in     right before verse
mimicing the intro guitar line


3)
Gb------------------------------------
Db--2-2-2--2-2-2--2-2-2--2-2-2--5-5--2
Ab--2-2-2--2-2-2--2-2-2--2-2-2--5-5--2
Eb--0-0-0--0-0-0--0-0-0--0-0-0--3-3--0
"Hey Hey Hey"


4)
Gb-------------------------
Db--5-5--4-4--4-7--7----7-2
Ab--5-5--4-4--4-7--7--7-7-2
Eb--3-3--2-2--2-5--5--7-5-0
"I'm pain.........

[ Tab from: http://www.guitartabs.cc/tabs/m/metallica/i_disappear_tab_ver_3.html ]
5)
Gb-----------
Db--5-5--4--2
Ab--5-5--4--2
Eb--3-3--2--0
"...left for me."


6a)
eb--15~14~------------15~14~----
Bb--------15~~--------------15~~
Gb------------14~---------------
Db------------------------------
Ab------------------------------
Eb---------------12~~~----------
"Do you bury me when I'm gone."

6b)
eb--0----------------0---------------
Bb----3----------0-----3----------0--
Gb------2-0----2---------2-0----2----
Db-----------2----------------2------
Ab-----------------------------------
Eb-----------------0----------------0
clean, second time only


7)
eb-------------------------- 3 ---------------------------
Bb-------------------------- t ---------------------------
Gb----12----12-----------12- i -14-12----14-12----14-12---
Db----12----12-----12-14---- m -------14-------14-------14
Ab-------14----14----------- e ---------------------------
Eb--0----------------------- s ---------------------------


8)
Gb----------------------------------------
Db--2---2--5-5--2---2--5-5--2---2--5-4-3-2
Ab--2---2--5-5--2---2--5-5--2---2--5-4-3-2
Eb--0-3~0--3-3--0-3~0--3-3--0-3~0--3-2-1-0



Comments