Metallica - I Disappear Chords & Tabs

 

I Disappear Chords & Tabs

Metallica Chords & Tabs

Version: 2 Type: Tab 0 ratings
1 star 2 stars 3 stars 4 stars 5 stars
comments

I Disappear Tab

   
I Disappear (THE RIGHT WAY) haha
by Metallica - as performed live
transcribed by : Brian S.

key : ^ - upstrokes on pic
      b - bend have a step

tune all guitars down half a step

Intro : repeat a few times
E-^------------------------------------------------------
b--^-----------------------------------------------------
g---^------9b--r9~------------------9b--r9---------------
d----^---------------------------------------------------
a-----^----7b--r7~-(2)---(2)---(2)--7b--r7---------------
E------0------------0-----0-----0------------------------

Verse :
E-------------------------------------------------------
b-------------------------------------------------------
g-------------------------------------------------------
d-------------------------------------------------------
a-5---5---2---2---2---2-5h7--2---2---2---2---5---5------
E-3---3---0---0---0---0------0---0---0---0---3---3------
[ Tab from: http://www.guitartabs.cc/tabs/m/metallica/i_disappear_tab_ver_2.html ]
Bridge :
E-------------------------------------------------------
b-------------------------------------------------------
g-------^-^---------------------------------------------
d--5--5^~~~^4--4---7---7---7--------------7b------------
a-------------------------------------------------------
E--3--3-----2--2---5---5---5----0--2--0---5b------------

Solo :!!
  E7#9  
E-------------------------------|-------------------|-----
b--8--8--8----------------------|-------------------|-----
g--7--7--7--------------12b(1/4)|-14p12----14p12----|-----
d--6--6--6---------12h14--------|-------14------14--|-----
a--7--7--7~~--------------------|-------------------|-----
E-------------/14.--------------|-------------------|-----
     3x                            a lot

E-------------------------------------------------------
b-------------------------------------------------------
g--14b(16)~-14b~--14p12---------------------------------
d-----------------------14~~----------------------------
a-------------------------------------------------------
E-------------------------------------------------------
Comments