Metallica - I Disappear Chords & Tabs

 

I Disappear Chords & Tabs

Metallica Chords & Tabs

Version: 12 Type: Tab 0 ratings
1 star 2 stars 3 stars 4 stars 5 stars
comments

I Disappear Tab

   
TUNING: 1 = Eb   4 = C#
        2 = Bb   5 = G#
        3 = F#   6 = Eb

KEY: b = Bend
     r = Release Bend
     \ = Slide Down  
     h = Hammer-On 
     h = Harmonic
     p = Pull-Off 
    PM = Palm Mute 


INTRO Fig.1
Guitar 1
1-|-----------| |-------------|
2-|-----------| |-------------|
3-|----9b10r9-| |------9b10r9-|
4-|-----------| |-------------|
5-|-----------| |-------------|
6-|-0---------| |-0-0---------| x13

Guitar 2
1-|--------------|    |-----------|
2-|--------------|    |-----------|
3-|--------------|    |-----------|
4-|--------------|    |-----------|
5-|-2---7b8r7-7--|    |-2---7b8r7-|
6-|-0---7b8r7-5--| x7 |-0---7b8r7-|


Fig.2
1-|--------------|    |-----------------|
2-|--------------|    |-----------------|
3-|--------------|    |-----------------|
4-|--------------|    |-----------------|
5-|-2---7b8r7-7--|    |-2---7b8r7--5-5-\|
6-|-0---7b8r7-5--| x3 |-0---7b8r7--3-3-\| 


Verse 1 Fig.3
1-|---------------------------------------------------
2-|---------------------------------------------------
3-|---------------------------------------------------
4-|-------------0h2-----------------------------0h2---
5-|-2--2-2-2--2-----2--2-2-2--5-5---2--2-2-2--2-----2-
6-|-0--0-0-0--0-----0--0-0-0--3-3-\-0--0-0-0--0-----0-

---------------------------------------------------------
---------------------------------------------------------
---------------------------------------------------------
----------------------------------------------0h2--------
-2-2-2--2-2--0-0--4-4--5-4-0-4-5--2--2-2-2--2-----2--2-2-
-0-0-0--3-3--2-2--5-5--7-5-0-5-7--0--0-0-0--0-----0--0-0-

----------------|
----------------|
---------9b10r9-|
----------------|
-2--5-5---------|
-0--3-3---------|


Verse 2 Fig.4
1-|---------------------------------------------------
2-|---------------------------------------------------
3-|---------------------------------------------------
4-|-------------0h2-----------------------------0h2---
5-|-2--2-2-2--2-----2--2-2-2--5-5---2--2-2-2--2-----2-
6-|-0--0-0-0--0-----0--0-0-0--3-3-\-0--0-0-0--0-----0-

---------------------------------------------------------
---------------------------------------------------------
---------------------------------------------------------
----------------------------------------------0h2--------
-2-2-2--2-2--0-0--4-4--5-4-0-4-5--2--2-2-2--2-----2--2-2-
-0-0-0--3-3--2-2--5-5--7-5-0-5-7--0--0-0-0--0-----0--0-0-

------------------|
------------------|
------------------|
------------------|
-2--5-5---4---2---|
-0--3-3---2---0---|


Chorus 1 Fig.5
    h  h  h  h    h   h   h  h  h  h   h
1-|-------12--------------------12---------|
2-|----7---------------------7-------------|
3-|-5--------7------------5--------7-------|
4-|---------------7--------------------7---|
5-|-------------------7--------------------|
6-|----------------------------------------|


Verse 3 Fig.6
1-|---------------------------------------------------
2-|---------------------------------------------------
3-|---------------------------------------------------
4-|-------------0h2-----------------------------0h2---
5-|-2--2-2-2--2-----2--2-2-2--5-5---2--2-2-2--2-----2-
6-|-0--0-0-0--0-----0--0-0-0--3-3-\-0--0-0-0--0-----0-
[ Tab from: http://www.guitartabs.cc/tabs/m/metallica/i_disappear_tab_ver_12.html ]
--------------------------------------------------------
--------------------------------------------------------
-------------------------------------9\--------9\-------
-------------------------------------9\--------9\-------
-2-2-2--2-2--0-0--4-4--5-4-0-4-5--2--7\-2-2-2--7\-2-2-2-
-0-0-0--3-3--2-2--5-5--7-5-0-5-7--0-----0-0-0-----0-0-0-

----------------------------|
----------------------------|
-9\--------9\---------------|
-9\--------9\---------------|
-7\-2-2-2--7\-5-5---4---2---|
----0-0-0-----3-3---2---0---|


Chorus 2 Fig.7
Guitar 1
    h  h  h  h    h   h   h  h  h  h   h
1-|-------12--------------------12---------12----|
2-|----7---------------------7-------------15b17-|
3-|-5--------7------------5--------7-------------|
4-|---------------7--------------------7---------|
5-|-------------------7--------------------------|
6-|----------------------------------------------|

Guitar 2
1-|-0--------------------------0--------------------------|
2-|---3-2p0-0--------------------3-2p0-0------------------|
3-|----------------------2---------------------------2--2-|
4-|--------------------2---------------------------2----2-|
5-|------------------0---------------------------0------0-|
6-|--------------------------0----------------------------|


Guitar Solo Fig.8
1-|-----------------------------------------------
2-|-----------------------------------------------
3-|-------12-12---------12-------12-12---------12-
4-|-------12-12-0h12h14----------12-12-0h12h14----
5-|-2--2-------------------2--2-------------------
6-|-0--0-------------------0--0-------------------

---------------------------------------------------------
---------------------------------------------------------
-------12-12---------12-14p12----14p12----14p12----14p12-
-------12-12-0h12h14----------14-------14-------14-------
-2--2----------------------------------------------------
-0--0----------------------------------------------------

------------|
------------|
---16p12----|
14-------14-|
------------| x2
------------|


Fig.9
1-|----------------|    |------------------|
2-|----------------|    |------------------|
3-|----------------|    |------------------|
4-|----------------|    |------------------|
5-|-2---7b8r7--5-5-|    |-2---7b8r7--5-4-3-|
6-|-0---7b8r7--3-3-| x3 |-0---7b8r7--3-2-1-|


Fig.10
1-|-----------------|    |-------------------|
2-|-----------------|    |-------------------|
3-|-----9b10r9------|    |-----9b10r9--------|
4-|-----------------|    |-------------------|
5-|-2-----------5-5-|    |-2-----------5-4-3-|
6-|-0-----------3-3-| x3 |-0-----------3-2-1-|


Last Chorus Fig.11
Guitar 1
    h  h  h  h    h   h   h  h  h  h   h
1-|-------12--------------------12---------12----|
2-|----7---------------------7-------------15b17-|
3-|-5--------7------------5--------7-------------|
4-|---------------7--------------------7---------|
5-|-------------------7--------------------------|
6-|----------------------------------------------|

Guitar 2
1-|-------------------------------------------------------
2-|-------------------------------------------------------
3-|-------------------------------------------------------
4-|---------------------4-5--5-5-5-4-2--2-2-2-------------
5-|-2--2-2-2-4-5--5-5-5-2-3--3-3-3-2-0--0-0-0-5-2---2-2-2-
6-|-0--0-0-0-2-3--3-3-3-----------------------3-0---0-0-0-
       PM. .      PM. .      PM. .      PM. .       PM. .

-------------------------------------|
-------------------------------------|
-------------------------------------|
------------4-5--5-5-5-4-7---7-7-7-7-|
-4-5--5-5-5-2-3--3-3-3-2-5---5-5-5-5-| x2
-2-3--3-3-3--------------------------|
      PM. .      PM. .       PM. .

Guitar 3
    wah-wah
1-|---|
2-|---|
3-|-9-|
4-|-9-| x64
5-|-7-|
6-|---|
Comments