Metallica - I Disappear Chords & Tabs

 

I Disappear Chords & Tabs

Metallica Chords & Tabs

Version: 4 Type: Bass Tab 0 ratings
1 star 2 stars 3 stars 4 stars 5 stars
comments

I Disappear Bass Tab

Tabbed By : Gkampsrock
e-mail: Skater_449@hotmail.com
They won't let me post the lyrics but try to figure it out.
Tuning:standard
INTRO
G|---------------------------------------------------------------------------|
D|---------------------------------------------------------------------------|
A|-1/3-h5-1-/3-h5---1/3-h5---1/3-h5---1/3-h5---1/3-h5---1/3-h5---1/3-h5------|
E|----------------0-------0---------0--------0--------0--------0--------0----|
[ Tab from: http://www.guitartabs.cc/tabs/m/metallica/i_disappear_btab_ver_4.html ]
G|---------------------------------------------------------------------------|
D|---------------------------------------------------------------------------|
A|-1/3-h5---1/3-h5---1/3-h5---1/3-h5--------3-3-5-5-7-7-------------3-3-5-5--|
E|--------0--------0--------0--------0-444--------------7-7-5-5-3-3----------|
Verse 
G|---------------------------------------------------------------------------|
D|---------------------------------------------------------------------------|
A|1/3-5-5-7-7-7-7-9-9-9-9-h10------------------------------------------------|
E|----------------------------0-10-9-7-7-------------------------------------|
Bridge
G|---------------------------------------------------------------------------|
D|---------------------------------------------------------------------------|
A|-1-1-3-3-5-5---------------------------------------------------------------|
E|-------------0-h-4-4-------------------------------------------------------|
Fill 
G|---------------------------------------------------------------------------|
D|---------------------------------------------------------------------------|
A|1/3-h5---1/3-h5---1/3-h5---1/3-h5------------------------------------------|
E|-------0--------0--------0--------4-4--------------------------------------|
CHORUS
G|---------------------------------------------------------------------------|
D|---------------------------------------------------------------------------|
A|----------------2-2------------3-3---7-7--------------8-8-8----------------|
E|0-0-0-0-0-0-0-0-----0-0-3-3/-4-4---------0-0-8-8/-9-9----------------------|
SOLO part 1
G|---------------------------------------------------------------------------|
D|---------------------------------------------------------------------------|
A|-------------------4-3-------------------4-3-------------------------------|
E|-5-5-5-5-5-5-5-5-5-----5-5-5-5-5-5-5-5-5-----5-5-5-5-5-5-5-5-5-------------|
SOLO part 2
G|---------------------------------------------------------------------------|
D|---------------------------------------------------------------------------|
A|-------------------4-3--3-3-3-4-4-4-5-5-5-4:3-4:3--------------------------|
E|-5-5-5-5-5-5-5-5-5---------------------------------------------------------|
post solo
G|-------------------------------------------------------------------------------|
D|-------------------------------------------------------------------------------|
A|---------5---------5---------5-------------------3-------3-------3-------------|
E|-0-0-5-0---0-0-5-0---0-0-5-0---0-0-5-0-3-3-0-5-0---0-5-0---0-5-0---0-5-0-0-3-3-|


| /  slide
h hammer on

Intro x1
Verse x2
Bridge x1
Verse x1
Fill x1
Chorus x1
Fill x1
Verse x2
Bridge x1
Verse x1
Chorus x2
Fill x1
Solo part 1 x2
Solo part 2 x1
solo part 1 x2
solo part 2 x1
post solo x1
Chorus x4 (play faster than normal)
fill x1
Comments