Metallica - I Disappear Chords & Tabs

 

I Disappear Chords & Tabs

Metallica Chords & Tabs

Version: 3 Type: Bass Tab 0 ratings
1 star 2 stars 3 stars 4 stars 5 stars
comments

I Disappear Bass Tab

-------------------------------------------------------------------------------
			     I disappear - Metallica
-------------------------------------------------------------------------------

Tabbed By :play bass

Tuning:Standard
Intro:
G|--------------------------------------------------------------------------------|
D|--------------------------------------------------------------------------------|
A|--------------------------------------------------------------------------------|
E|0-0-5-0-0-5-0-0-5-0-0-5-0-0-5-0-0-5-0-0-5-0-0-5-0-0-5-0-0-5-0-0-5-0-0-3-3-3-----|

G|-----------------------------------------------------------------------------|
D|-----------------------------------------------------------------------------|
A|-----------------------------------------------------------------------------|
E|-3-3-2-2-5-5-7-7-8-8-8-8-8-8-8-8-8-8-8-8-5-5---------------------------------|
Verse 1,2,3
G|---------------------------------------------------------------------------------------------------------|
D|---------------------------------------------------------------------------------------------------------|
A|---------------------------------------------------------------------------------------------------------|
E|-3-3-/2-2/-5-5-7-7-8-8-8-8-8-8-8-8-5-5-5-:|-3-3/-2-2/-5-5-7-7-3-3/-2-2/-5-5-7-7-8-8-8-8-8-8-8-8-5-5-5:|--|
Chorus
G|-------------------------------------------------------------------------------------|
D|-------------------------------------------------------------------------------------|
A|-------------------8-8-8-8-8-8-8---------------------5-5-5-5-5-5:|-------------------|
E|-3-3/-2-2/-5-5-7-7----------------3-3/-2-2/-5-5-7-7----------------------------------|

G|-----------------------------------------------------------------------------|
D|-----------------------------------------------------------------------------|
A|-----------------------------------------------------------------------------|
E|-0-0-5-0-0-5-0-0-5-0-0-3-3---------------------------------------------------|
[ Tab from: http://www.guitartabs.cc/tabs/m/metallica/i_disappear_btab_ver_3.html ]
G|VERSE------------------------------------------------------------------------|
D|-----------------------------------------------------------------------------|
A|-----------------------------------------------------------------------------|
E|-----------------------------------------------------------------------------|

G|Chorus-----------------------------------------------------------------------|
D|-----------------------------------------------------------------------------|
A|-----------------------------------------------------------------------------|
E|-----------------------------------------------------------------------------|
pre-solo
G|-----------------------------------------------------------------------------|
D|-----------------------------------------------------------------------------|
A|-----------------------------------------------------------------------------|
E|0-0-5-0-0-5-0-0-4-4----------------------------------------------------------|
Solo
G|-----------------------------------------------------------------------------|
D|-----------------------------------------------------------------------------|
A|----------4-3-----------4-3------------4-3-3-3-3-3-5-5-5-5-32:|--------------|
E|-5-5-5-5-------5-5-5-5-------5-5-5-5-----------------------------------------|


G|-INTRO-----------------------------------------------------------------------|
D|-----------------------------------------------------------------------------|
A|-----------------------------------------------------------------------------|
E|-----------------------------------------------------------------------------|

G|-CHORUS----------------------------------------------------------------------|
D|-----------------------------------------------------------------------------|
A|-----------------------------------------------------------------------------|
E|-----------------------------------------------------------------------------|

G|PRESOLO----------------------------------------------------------------------|
D|-----------------------------------------------------------------------------|
A|-----------------------------------------------------------------------------|
E|-----------------------------------------------------------------------------|

Thanks this isn't a hard song but it was hard to tab.
Comments