Metallica - I Disappear Chords & Tabs

 

I Disappear Chords & Tabs

Metallica Chords & Tabs

Version: 1 Type: Bass Tab 0 ratings
1 star 2 stars 3 stars 4 stars 5 stars
comments

I Disappear Bass Tab

   
"I Disappear" 
MetallicA 
Mission Impossible II Soundtrack 
Oringinal Tab by: Jeff Perilman 
Correction by: The Fuelman (Fuelman2002@aol.com) 
Tuning :  Tune down to Eb, Ab, Db, Gb 

Intro 
G|---------|--------|--------|--------| 
D|---------|--------|--------|--------| 
A|---------|--------|--------|--------| 
E|-0--0-0--|---0-0--|---0-0--|---0-0--| 

G|-------|*---------*| 
D|-------|*---------*|    * 8x then pause 
A|-------|*---------*| 
E|-0--7~-|*--5-0--7~*| 
2ND INTRO 

G|-------|--------|--------|--------|-------| 
D|-------|--------|--------|--------|-------| 
A|-------|--------|--------|--------|-------| 
E|-0--7~-|-5-0--7~|-5-0--7~|-5-0--7~|-3-3--0| 
CONTINUATION 

G|-------|-------|-------|-------|-------| 
D|-------|-------|-------|-------|-------| 
A|-------|-------|-------|-------|-------| 
E|-0-0-0-|-0-0-0-|-0-0-0-|-0-0-0-|-3-3--0| 
VERSE      
[ Tab from: http://www.guitartabs.cc/tabs/m/metallica/i_disappear_btab.html ]
G|-------|-------|-------|-----------------------------| 
D|-------|-------|-------|-----------------------------| 
A|-------|-------|-------|-----------------------------| 
E|-0-0-0-|-0-0-0-|-0-0-0-|-3-3--2-2--2/5-5--7-7\-------| 
BRIDGE     

G|------------| 
D|------------| 
A|------------|    
E|--3-3--2--0-| 
PRE-CHORUS    

G|---------------------------------------------------------| 
D|---------------------------------------------------------| 
A|---------------------------------------------------------| 
E|2-2--3-3-3-3/7-7-7-7--8-8-8-8-8-8-8-8-7--5-5-5-5-5-5-3--0| 
CHORUS 

G|---------------------| 
D|---------------------| 
A|---10---------12-----| 
E|8----8--8/10----10--5| 
BASS FILL AT END OF CHORUS (after 8-8-8-8-8-8-8-8-7) 

G-----------------| 
D-----------------| 
A-----------3--5--| 
E--3--5--0--------| 
PRE-SOLO      

E|0--0-0-0-0-5-5-0--0-0-0-0-5-5-0--0-0-0-0-5-5-3-3-3-3-3-3-3| 
SOLO    

       x3                 x1 
G|-------|-----|   G|-------|-------| 
D|-------|----*|   D|-------|-------| 
A|-------|----*|   A|-------|-------| 
E|0-0-4-0|-3-3-|   E|0-0-4-0|-3-2-1-| 
POST-SOLO 

*Jason's last studio work with Metallica* 

Comments