Metallica - Human Chords & Tabs

 

Human Chords & Tabs

Metallica Chords & Tabs

Version: 4 Type: Tab 0 ratings
1 star 2 stars 3 stars 4 stars 5 stars
comments

Human Tab

   
Person: Phil Boyle

song: - Human

artist: Metallica

tab: "- Human"
- Human
written by Metallica 
as performed live with the San Francisco Symphony
tab by Phil Boyle; phil@encycmet.com


The song is pretty basic, a lot of the textures and interesting melodys
were provdied by
the symphony and added a lot to the song than just the guitar.  

Special thanks to the guys from www.chapterinc.com.
And also to Padmé who recorded the version and made it available to
members of the metclub,
and chapterinc.


[ Tab from: http://www.guitartabs.cc/tabs/m/metallica/human_tab_ver_4.html ]
tune all guitars down 1 1/2 steps (C# tuning)
low to high C#, F#, B, E, G#, C#
symphony intro

1)
E-----------------------------------------
B---2------------7---5-----------4-5--5--2
F#--2------------7---5-----9-7---4-5--5--2
C#--0--0-7~~0-6~~5-0-3---0-7-6-0-2-3--3--0
                pm....         .  .......



2)
E----------------
B---2---8-9-8-7-2
F#--2---8-9-8-7-2
C#--0---6-7-6-5-0



3)
E---------------------------------------
B---2--5--7--2--8-9-8-7-2--5--7--9-9-9-9
F#--2--5--7--2--8-9-8-7-2--5--7--9-9-9-9
C#--0--3--5--0--6-7-6-5-0--3--5--7-7-7-7
"Don't you leave me father time."
verse


Comments