Metallica - Human Chords & Tabs

 

Human Chords & Tabs

Metallica Chords & Tabs

Version: 1 Type: Tab 0 ratings
1 star 2 stars 3 stars 4 stars 5 stars
comments

Human Tab

Artist: Metallica
Song Title: -Human
Tabbed By: colfire3
Tuning: 1.5 steps down on all strings.

Note: I have not seperated James' and Kirk's parts. I have written it as if there was
only one guitarist playing. It's not hard to figure out which is which, though. Just 
listen to the track
Also, I have not written out the solo yet.

Key:
~ = Vibrato
/ = Slide up
\ = Slide down
^ = Bend

Intro
-----
e|----------------------------------------------|
B|----------------------------------------------|
G|----------------------------------------------|
D|----------------------------------------5--5--|
A|----------------------------------------5--5--|
E|--0-0-0-/7-0-6~-/3-0-3^--0-0-0-/7-6-0-2-3--3--|
Play four times
[ Tab from: http://www.guitartabs.cc/tabs/m/metallica/human_tab.html ]
Pre-Verse
---------
e|-------------------------------------------------------------------------|
B|-------------------------------------------------------------------------|
G|-------------------------------------------------------------------------|
D|--2--2--2--2----------2--2--2--2-------*-*--2--2--2--2-------------------|
A|--2--2--2--2----------2--2--2--2-------*-*--2--2--2--2-------------------|
E|--0--0--0--0--6h7-6-5-0--0--0--0--6h7~-*-*--0--0--0--0--6h7-6-5-3h5-3-2--|
Play twise

Verse
-----
e|------------------------------------------------------|
B|------------------------------------------------------|
G|------------------------------------------------------|
D|--2----5----7----2----------------2----5----7----9----|
A|--2----5----7----2----------------2----5----7----9----|
E|--0----3----5----0--------6h7-6-5-0----3----5----7----|
Play once

Play through Pre-Verse once...
Play through Intro twice...
Play through Pre-Verse once again...
Play through Verse...
Play through Pre-Verse once...
Play through intro twice...
Then comes the solo which i haven't written out yet...
Then the Intro once...
Then...

e|------------------------------------------|
B|------------------------------------------|
G|------------------------------------------|
D|-----------------------------------5--5---|
A|-----------------------------------5--5---|
E|--0-0-0-/7-0-/6^----0-0-0-/7-6-0-2-3--3---|




Comments