Metallica - Hero Of The Day Chords & Tabs

 

Hero Of The Day Chords & Tabs

Metallica Chords & Tabs

Version: 2 Type: Tab 3 ratings
1 star 2 stars 3 stars 4 stars 5 stars
comments

Hero Of The Day Tab

HERO OF THE DAY - CORRECT - NO NEED TO TUNE
CAPO 1ST FRET :

INTRO AND VERSE:
|--------------------------------------------------------
|--------------------------------------------------------
|------------------1----1-----1----1-----3-----3-----3---
|----------------1----1-----1----1-----5---5-----5-----5-
|-------------------1-----3----4-----6-------6-----6-----
|-1--4--1--4--4------------------------------------------

|-----------------------------------------------------------------
|-----------------------------------------------------------------
|------------------1----1-----1----1-3-----3-----3------3h6p3-----
|----------------1----1-----1----1---5---5-----5------5-------5-6-
|-------------------1-----3----4-----6-6------6-----6-------------
|-1--4--1--4--4---------------------------------------------------

CHORUS:
                                                   
                       They're off to find the hero of the day
|-------------------------------------------------------------------|
|-------------------------------------------------------------------|
|----------------------------10------------3-3-3-3-3-3-3-3-3-3-3-3--|
|--6----6----8-----8---10-10-----11----11--5-5-5-5-5-5-5-5-5-5-5-5--|
|--6--6------8--8------10--------11-11-----6-6-6-6-6-6-6-6-6-6-6-6--|
|--4---------6---------8---------9----------------------------------|
                                               PM..            

                   But what if they should fall by someone's wicked way.....
|-----------------------------------------------------------------------------|
|-----------------------------------------------------------------------------|
|-----------------------------------------11---------3-3-3-3-3-3-3-3-3-3-3-3--|
|--------6-----6----8-----8----10----10---11-----11--5-5-5-5-5-5-5-5-5-5-5-5--|
|--------6--6-------8--8-------10-10------11--11-----6-6-6-6-6-6-6-6-6-6-6-6--|
|-1-4-1--4----------6----------8----------9-----------------------------------|
                                                           PM..
[ Tab from: http://www.guitartabs.cc/tabs/m/metallica/hero_of_the_day_tab_ver_2.html ]
 Still the window burns Time so slowly turns And someone there is sighing
 Keepers of the flames Do ya feel your name? Can't you hear your babies crying?
|-----------------------------------------------------------------------------|
|----------------------------------------------------------------------6~~~~--|
|o-------------------------------------------------33333333///5555555--7~~~~-o|
|o/6--------------/8------------/10----/11---------55555555///7777777--8~~~~-o|
|-/6--------------/8------------/10----/11---------66666666///8888888---------|
|-/4--------------/6------------/8-----/9-------------------------------------|

BRIDGE: (NOTE: if u r playing with a capo on first fret,
then you cant play the open E string, so just settle for the 2's
on the A and D string)
|---------------------------------------|
|---------------------------------------|
|---------------------------------------|
|--2-x-2-x-2-x-2-x-2-x-2-x-2-x-2-x-2-x-2|
|--2-x-2-x-2-x-2-x-2-x-2-x-2-x-2-x-2-x-2|
|--0-x-0-x-0-x-0-x-0-x-0-x-0-x-0-x-0-x-0|
   PM  .   .   .   .   .   .   .   .   .

  But now the dreams and waking screams   
  That ever last the night
  So build the wall, behind the crawl
  And hide until it's light

So can you hear your babies cryin' now?
|---------------------------------------|
|---------------------------------------|
|---------------------------------------|
|--2-x-2-x-2-x-2-x-2-x-2-x-2---2---2---2|
|--2-x-2-x-2-x-2-x-2-x-2-x-2---2---2---2|
|--0-x-0-x-0-x-0-x-0-x-0-x-0---0---0---0|
  PM   .   .   .   .   .   

SOLO:
|---------------4-------------4/9-9-9-8-8-8-6-6-6-6--
|6-4-6-4-6--4-6---6-4-6-4-6-4------------------------
|----------------------------------------------------
|----------------------------------------------------
|----------------------------------------------------
|----------------------------------------------------

|---------------4-------------4/11-11-11-9-9-9-11-11-11-13-13-13-15-
|6-4-6-4-6--4-6---6-4-6-4-6-4------------------------------------//-
|----------------------------------------------------------------//-
|------------------------------------------------------------tremelo
|---------------------------------------------------------------pick
|-------------------------------------------------------------------

ENJOY! email me at s_starbuck100@hotmail.com
Comments