Metallica - Hero Of The Day Chords & Tabs

 

Hero Of The Day Chords & Tabs

Metallica Chords & Tabs

Version: 4 Type: Bass Tab 0 ratings
1 star 2 stars 3 stars 4 stars 5 stars
comments

Hero Of The Day Bass Tab

Hero of the Day 

Intro

Gb|-------------------------------||-------------------------------|
Db|-------------------------------||-------------------------------|
Ab|----Guitar----(X3)-------------||---------------------------0---|
Eb|-------------------------------||-------------------------2---2-|

Verse

Gb|-------------------------------||-------------------------------|
Db|--7-7(/)-9-9-(/)-11-11(/)12-12-||-------------------------------|
Ab|-0----0-------0--------0-------||0--------------------------0---|
Eb|-------------------------------||-12\-0-0-0-0-0-0-0-0-0-0-2---2-|

Chorus

Gb|-------------------------------||-------------------------------|
Db|-------------------------------||-------------------------------|
Ab|0-0-0-0-2-2-2-2-4-4-4-4-5-5-4-5||5/7------5---7--------------0--|
Eb|-------------------------------||----0-0-0--0----0-0-0-0-0-2---2|

Bridge
[ Tab from: http://www.guitartabs.cc/tabs/m/metallica/hero_of_the_day_btab_ver_4.html ]
Gb|-------------------------------||-------------------------------|
Db|-------------------------------||-------------------------------|
Ab|-------------------------------||-------------------------------|
Eb|2-22-22-22-22-22-22-2-0233-0233||2-22-22-22-22-22-22-2-0233-0233|

Outro

Gb|-------------------------------||-------------------------------|
Db|-------------------------------||-------------------------------|
Ab|-------------------------------||-------------------------------|
Eb|2-2-2-2-2-2-2-2-4-4-4-4-4-4-4-4||5-5-5-5-5-5-5-5-7-7-7-7-7-7-7-7|

Ending

Gb|-------------------------------||-------------------------------|
Db|-------------------------------||-------------------------------|
Ab|-------------------------------||-------------------------------|
Eb|3--2-------2-------------------||-(2)---------------------------|

Song Order
Intro
Verse X 4
Chorus X 2
Intro
Verse X 4
Chorus X 2
Bridge X 2
Chorus X 4
Bridge X 3
Outro X 4
Ending
Comments