Metallica - Hero Of The Day Chords & Tabs

 

Hero Of The Day Chords & Tabs

Metallica Chords & Tabs

Version: 1 Type: Bass Tab 0 ratings
1 star 2 stars 3 stars 4 stars 5 stars
comments

Hero Of The Day Bass Tab

Song: Hero of The Day		
Band: MetallicA
Album: Load

Transcribed By Eros Fratini (e-r-o-s@libero.it)
Tune down 1/2 step ecc...

------------------------------ Bass Tab -------------------------------
Time 4/4
beat 112

Intro:

7 bars guitar only

:--------------------------------|--------------------------------:
:--------------------------------|--------------------------------:
:-----------------------------7--|-7---7---7---7---7---7---7---7--:
:--------------------------------|--------------------------------:

Verse 1:
|--------------------------------|--------------------------------|
|-7-------7--(7)/-9---9------(9)/|11--11-----(11)/12--12-(12)--\--|
|-----0-------0---0-------0---0--|-0-------0---0---0-------0---0--|
|--------------------------------|--------------------------------|

|--------------------------------|--------------------------------|
|--------------------------------|--------------------------------|
|--------------------------------|--------------------------------|
|-0---0---0---0---0---0---0---0--|-0---0---0---0---0---0---0---0--|

Fig.1
|--------------------------------|--------------------------------|
|-----7------(7)/-9---9------(9)/|11--11-----(11)/12--12-(12)--\--|
|-0-------0---0---0-------0---0--|-0-------0---0---0-------0---0--|
|--------------------------------|--------------------------------|

                                                          end Fig.1
|--------------------------------|--------------------------------|
|--------------------------------|--------------------------------|
|--------------------------------|--------------------------------|
|-0---0---0---0---0---0---0---0--|-0---0---0---0---0---0---0---0--|

Fig.2
|--------------------------------|--------------------------------|
|-----7------(7)/-9---9------(9)/|11--11-----(11)/12--12-(12)--\--|
|-0-------0---0---0-------0---0--|-0-------0---0---0-------0---0--|
|--------------------------------|--------------------------------|

                                                          end Fig.2
|--------------------------------|--------------------------------|
|--------------------------------|--------------------------------|
|--------------------------------|-------------------------0------|
|-0---0---0---0---0---0---0---0--|-0---0---0---0---0---2-------2--|

Repeat Fig.2 x 1
[ Tab from: http://www.guitartabs.cc/tabs/m/metallica/hero_of_the_day_btab.html ]
Fig.3
|--------------------------------|--------------------------------|
|--------------------------------|--------------------------------|
|-0---0---0---0---2---2---2---2--|-4---4---4---4---5---5---4---5--|
|--------------------------------|--------------------------------|

                                                          end Fig.3
|--------------------------------|--------------------------------|
|--------------------------------|--------------------------------|
|-5/7-----------------7-------5--|(5)--7-------------------0------|
|---------0---0---0-------0------|---------0---0---0---2-------2--|

Repeat Fig.3 x 1
Repeat Fig.1 x 2
End Verse 1

Verse 2:

Repeat Fig.1 x 2
Repeat Fig.3 x 4

End Verse 2

Chorus:
Fig.4                                                     end Fig.4
|--------------------------------|--------------------------------|
|--------------------------------|--------------------------------|
|->------->------->------->------|->------->------->------->------|
|-2-2-2-2-2-2-2-2-2-2-2-2-2-2-2-2|-2-2-2-2-2-2-2-2-2---0-2-3-3-0-2|
           
Fig.4A                                                   end Fig.4A
|--------------------------------|--------------------------------|
|--------------------------------|--------------------------------|
|->------->------->------->------|->------->------->------->------|
|-3-3-2-2-2-2-2-2-2-2-2-2-2-2-2-2|-2-2-2-2-2-2-2-2-2---0-2-3-3-0-2|

Repeat Fig.4A x 4

End Chorus

Guitar Solo:

Repeat Fig.3 x 2

End Guitar Solo

Verse 3:

Repeat Fig.3 x 2

End Verse 3

Chorus:

Repeat Fig.4
Repeat Fig.4A x 5

End Chorus

Outro:

Fig.5
|--------------------------------|--------------------------------|
|--------------------------------|--------------------------------|
|--------------------------------|--------------------------------|
|-2-2-2-2-2-2-2-2-2-2-2-2-2-2-2-2|-4-4-4-4-4-4-4-4-4-4-4-4-4-4-4-4|

                                                          end Fig.5
|--------------------------------|--------------------------------|
|--------------------------------|--------------------------------|
|--------------------------------|--------------------------------|
|-5-5-5-5-5-5-5-5-5-5-5-5-5-5-5-5|-7-7-7-7-7-7-7-7-7-7-7-7-7-7-7-7|

Repeat Fig.5 x 3

|--------------------------------|--------------------------------:
|--------------------------------|--------------------------------:
|--------------------------------|--------------------------------:
|-3---2-------2------------------|(2)-----------------------------: End

-----------------------------------------------------------------------

Comments