Metallica - Harvester Of Sorrow Chords & Tabs

 

Harvester Of Sorrow Chords & Tabs

Metallica Chords & Tabs

Version: 5 Type: Tab 0 ratings
1 star 2 stars 3 stars 4 stars 5 stars
comments

Harvester Of Sorrow Tab

Standard Tuning


This is a fairly easy solo to play, but it 
sounds really cool. This should be pretty 
close to perfect.

Guide:
h - hammer on
p - pull off
/ - slide
^ - full bend
~ - vibrato





-----------------------------------------------------
--15^-15^~~~~~~-15^--15^--15^---15^*--15^~~~~-15^----
---------------------------------------------------14
-----------------------------------------------------
-----------------------------------------------------
-----------------------------------------------------
                                  *2 step bend

-17^--17^----15p14--14------------------------------
------------------17--17p15h17p15p14--14------------
----------------------------------------16----------
----------------------------------------------------
----------------------------------------------------
----------------------------------------------------
[ Tab from: http://www.guitartabs.cc/tabs/m/metallica/harvester_of_sorrow_tab_ver_5.html ]
----------------------------------------------------
----------------------------------------------------
--16p14h16p14h16p14h16^~~~~~~~---12---14----11h12p11
----------------------------------------------------
----------------------------------------------------
----------------------------------------------------

----------------------------------------------14h15h17/19
--------------------------------------14h15h17-----------
---------------------------------14h16-------------------
--------------12/14~~~~~~~~~~~~~-------------------------
-14---14--15---------------------------------------------
---------------------------------------------------------

-17--15--15h17p15/14--14h15p14---------------
--------------------------------15-----17----
---------------------------------------------
---------------------------------------------
---------------------------------------------
---------------------------------------------

Any questions or comments email me at Sief5783@aol.com
Comments