Metallica - Guitar Solo Live In Texas Chords & Tabs

 

Guitar Solo Live In Texas Chords & Tabs

Metallica Chords & Tabs

Version: 1 Type: Tab 1 rating
1 star 2 stars 3 stars 4 stars 5 stars
comments

Guitar Solo Live In Texas Tab

Band:Metallica
Song:Guitar Solo By Kirk Hammett (Live In Texas)
Album:Cunnig Stunts


Intro (whit distortion)
eb1-----------------------------------------------------------5~~--------5~~----1
Bb1-------------------5~~-----------5~~-----------------------5~~--------5~~----1
Gb1--------------5~~----------------------7~~5~~7~~-----------5~~--------5~~7~~~1
Db1--7~~~7~~-------------7~~~-------------------------------------7~~~----------1
Ab1-----------------------------------------------------------------------------1
Eb1-----------------------------------------------------------------------------1


Guitar Riff
eb1------------------------------------------------------------------------------1
Bb1-------------5~~--------------------------------------------------------------1
Gb1-------5~~-------------5~~~---------------------------7-5--------------------51
Db1--7~~-----------7~~~---------5~~~---------------------7-5-----------------/7--1
Ab1---------------------------------------------2~~----------------2~~-----------1
Eb1----------------------------------------3~~--------5~~-----3~~------5~~-------1

[ Tab from: http://www.guitartabs.cc/tabs/m/metallica/guitar_solo_live_in_texas_tab.html ]
eb1-----------------------8h9p8h9p8\------------------------------------------1
Bb1---------------------------------------------------------------------------1
Gb1--------------------------------------------------------------------9~~----1
Db1----------------------------------------------------------6~~9~~-----------1
Ab1--------2~~----------------------------2~~---------7~~---------------------1
Eb1--3~~--------5~~------------------3~~-------0--7~~---------------0--------—1


eb1----12-----3—3h5p3p2---12------2-2-3-0----12------12-------7-------12-----------1
Bb1-------12-----0-----------12-----0------------12------12-------7-------12-------1
Gb1--------------------------------------------------------------------------12----1
Db1--------------------------------------------------------------------------------1
Ab1--------------------------------------------------------------------------------1
Eb1—0----------------------0----------------0------0-------0--------0--------------1

Clean
eb1--------------------------------------------------------1
Bb1--------------------------------------------------------1
Gb1---------0--------0--------0----------------------------1
Db1-------4--------5--------7--------0--------0--------0---1
Ab1----2---------3-------5--------4--------2---------------1
Eb1—0--------0--------0--------5--------3---------5--------1


Hey men this solo is correct only practic

All coment to sosomadark@hotmail.com

By Carlos Salazar (sama)
Comments