Metallica - Fuel Chords & Tabs

 

Fuel Chords & Tabs

Metallica Chords & Tabs

Version: 1 Type: Bass Tab 0 ratings
1 star 2 stars 3 stars 4 stars 5 stars
comments

Fuel Bass Tab

Song: Fuel	
Band: MetallicA
Album: ReLoad

Transcribed By (alright) Eros Fratini (e-r-o-s@libero.it)
Tune down 1/2 step ecc...

------------------------------ Bass Tab -------------------------------
Time 4/4
beat 208

Gimme Fuel, Gimme Fire, gimme that wich I desire, ohoo. Eb:-0-

Fig.1
                                                     1.  
Gb:-------------------------------------------------|-----------------:
Db:-------------------------------------------------|-----------------:
Ab:-------------------------------------------------|-----------------:
Eb:-3p0-0-3p0-0-3p0-3p0-0-3p0-0-3p0-3p0-0-3p0-0-3p0-|-3/5-5-5-5-3-3h5-:

						     2.	
						    |-----------------:
						    |-----------------:
						    |-----------------:
						    |-3/5-5-5-5-3-0-3-:
                                                              end Fig.1

Fig.2:
:--------------------------------------------------------:
:--------------------------------------------------------:
:--------------------------------------------------------:
:-5-5--5-5-5--5-5-5--5-5-5--5-5-5--5-5-5--5-5-5--5-5-5-3-: end Fig.2

Riff.1:
:---------------------------------:
:---------------------------------:
:---------------------------------:
:-3p0-0-3p0-0-3p0-3p0-0-3p0-0-3p0-: end Riff.1
             Yeah...

1° and 3° Verses:
:--------------------------------|--------------------------------|
:--------------------------------|--------------------------------|
:--------------------------------|--------------------------------|
:-0------------------------------|-3--------------------------(3)/|

|--------------------------------|--------------------------------|
|--------------------------------|--------------------------------|
|---------------------7---5------|(5)-----------------------------|
|-0---------------0--------------|-------------6-\-5-------3------|

|--------------------------------|--------------------------------|
|--------------------------------|--------------------------------|
|--------------------------------|---------------------5----------|
|-0---------------------------3-/|-7---------------7-------7---7--|

|--------------------------------|--------------------------------|
|--------------------------------|--------------------------------|
|---------------------4----------|--------------------------------|
|-6---------------6-------6---6--|-5---5-------5---5---0---3---0--|

|--------------------------------|--------------------------------|
|--------------------------------|--------------------------------|
|--------------------------------|--------------------------------|
|-5---5-------5---5---5-------5--|-5---5-------5---5---5-------5--|

|--------------------------------|--------------------------------|
|--------------------------------|--------------------------------|
|--------------------------------|--------------------------------|
|-5---5-------5---5---5-------5--|-5-------5-------5---5---3---0--|

|--------------------------------|--------------------------------:
|--------------------------------|--------------------------------:
|--------------------------------|--------------------------------:
|-3-p-0---0---3-p-0---0---3-p-0--|-3-p-0---0---3-p-0---0---3-p-0--:

2° and 4° Verses:
:--------------------------------|--------------------------------|
:--------------------------------|--------------------------------|
:--------------------------------|--------------------------------|
:-0------------------------------|-3--------------------------(3)\|

|--------------------------------|--------------------------------|
|--------------------------------|--------------------------------|
|--------------------------------|--------------------------------|
|-0-----------------------0---0--|-0---0-------0-------0---5-h-7--|

|--------------------------------|--------------------------------|
|--------------------------------|--------------------------------|
|--------------------------------|---------------------5----------|
|-0---------------------------3-/|-7---------------7-------7---7--|

|--------------------------------|--------------------------------|
|--------------------------------|--------------------------------|
|---------------------4----------|--------------------------------|
|-6---------------6-------6---6--|-5---5-------5---5---0---3---0--|

|--------------------------------|--------------------------------|
|--------------------------------|--------------------------------|
|--------------------------------|--------------------------------|
|-5---5-------5---5---5-------5--|-5---5-------5---5---5-------5--|

|--------------------------------|--------------------------------|
|--------------------------------|--------------------------------|
|--------------------------------|--------------------------------|
|-5---5-------5---5---5-------5--|-5---5-------5---5---5-------5--|

|--------------------------------|--------------------------------|
|--------------------------------|--------------------------------|
|--------------------------------|--------------------------------|
|-3-p-0---0---3-p-0---0---3-p-0--|-3-p-0---0---3-p-0---0---3-p-0--|

|--------------------------------|--------------------------------:
|--------------------------------|--------------------------------:
|--------------------------------|--------------------------------:
|-3-p-0---0---3-p-0---0---3-p-0--|-3---4---5---6---7---7---7---7--:

Chorus (Start Fig.3):
:--------------------------------|--------------------------------|
:--------------------------------|--------------------------------|
:--------------------------------|--------------------------------|
:-0---0---0---0---0---0---0---0--|-0---0---0---0---0---0---3---4--|

|--------------------------------|--------------------------------|
|--------------------------------|--------------------------------|
|--------------------------------|--------------------------------|
|-5---5---5---5---5---5---5---5--|-5---5---5---5---5---5---5---0--|

|--------------------------------|--------------------------------|
|--------------------------------|--------------------------------|
|--------------------------------|--------------------------------|
|-3---3---3---3---3---3---3---3--|-3---3---3---3---3---3---3---4--|

|--------------------------------|--------------------------------|
|--------------------------------|--------------------------------|
|--------------------------------|--------------------------------|
|-5---5---5---5---5---5---5---5--|-5---5---5---5---5---5---3---3--|

|--------------------------------|--------------------------------|
|--------------------------------|--------------------------------|
|--------------------------------|--------------------------------|
|-0---0---0---0---0---0---0---0--|-0---0---0---0---0---0---3---4--|

|--------------------------------|--------------------------------|
|--------------------------------|--------------------------------|
|--------------------------------|--------------------------------|
|-5---5---5---5---5---5---5---5--|-5---5---5---5---5---5---6---7--|

|--------------------------------|--------------------------------|
|--------------------------------|--------------------------------|
|--------------------------------|--------------------------------|
|-8---8---8---8---8---8---7---7--|-8---8---8---8---8---8---7---7--|

                      (end Fig.3)
|--------------------------------|--------------------------------|
|--------------------------------|--------------------------------|
|-5---5---5---5---5---5---5---5--|-5---5---5---5---5---5---5---5--|
|--------------------------------|--------------------------------|
[ Tab from: http://www.guitartabs.cc/tabs/m/metallica/fuel_btab.html ]
|--------------------------------|--------------------------------|
|--------------------------------|--------------------------------|
|--------------------------------|--------------------------------|
|-3-p-0---0---3-p-0---0---3-p-0--|-3-p-0---0---3-p-0---0---3-p-0--|
                                                           So gimme

|--------------------------------|--------------------------------:
|--------------------------------|--------------------------------:
|--------------------------------|--------------------------------:
|-0------------------------------|--------------------------------:
 fuel,     gimme    fire,   gimme that wich I desire.

Coda 1:
:--------------------------------|--------------------------------|
:--------------------------------|--------------------------------|
:--------------------------------|--------------------------------|
:-0------------------------------|--------------------------------|

 Repeat Fig.1
 Repeat Fig.2
 Repeat Riff.1     End Coda 1


Verse 3
Verse 4
Repeat Chorus until Coda 1 (excluded)

Substitute Coda 1 with:

Coda 2:
:--------------------------------|--------------------------------|
:--------------------------------|--------------------------------|
:--------------------------------|--------------------------------|
:--------------------------------|--------------------------------|
 Ooh,                             Yeah.
 
|--------------------------------|--------------------------------|
|*-------------------------------|--------------------------------|
|*-------------------------------|--------------------------------|
|-0---0---0---3-----------0------|-0-------0-------0-------0------|

                                                           4 times
|--------------------------------|--------------------------------|
|--------------------------------|-------------------------------*|
|--------------------------------|----------------->-------------*|
|-0---0---0---3-----------0------|-0-------0-------3--------------|

|--------------------------------|--------------------------------|
|*-------------------------------|--------------------------------|
|*-------------------------------|--------------------------------|
|-5---5---5---3-----------0---0--|-3-------0---0---0-------0------|

                                  1.2.3.
|--------------------------------|--------------------------------|
|--------------------------------|-------------------------------*|
|--------------------------------|-------------------------------*|
|-5---5---5---3-----------0---0--|-3-----------3---3-------0------|

                                  4.
                                 |--------------------------------|
                                 |--------------------------------|
                                 |--------------------------------|
                                 |-3-----------------------0---0--|

|--------------------------------|--------------------------------|
|--------------------------------|--------------------------------|
|--------------------------------|--------------------------------|
|-5---5-------5---5---5-------5--|-5---5-------5---5---5-------5--|

                                                               (4)
|--------------------------------|--------------------------------|
|--------------------------------|-------------------------------*|
|--------------------------------|-------------------------------*|
|-5---5-------5---5---5-------5--|-5---5---5---5---5---5---3---3--|

|--------------------------------|--------------------------------|
|*-------------------------------|--------------------------------|
|*-------------------------------|--------------------------------|
|-3-p-0---0---3-p-0---0---3-p-0--|-3-p-0---0---3-p-0---0---3-p-0--|

|--------------------------------|--------------------------------|
|--------------------------------|-------------------------------*|
|--------------------------------|-------------------------------*|
|-3-p-0---0---3-p-0---0---3-p-0--|-3-/-5---5---5---5---3---3-h-5--|

|--------------------------------|--------------------------------|
|*-------------------------------|--------------------------------|
|*-------------------------------|--------------------------------|
|-0---0---0---3-----------3---3--|-0---0---0---3-----------3---3--|

                                  1.
|--------------------------------|--------------------------------|
|--------------------------------|-------------------------------*|
|--------------------------------|-------------------------------*|
|-0---0---0---3-------3---3---3--|-3-/-5---5---5---5---3---3-h-5--|

                                  2.
                                 |--------------------------------|
                                 |--------------------------------|
                                 |--------------------------------|
                                 |-3-----------2-----------1------|

|--------------------------------|--------------------------------|
|--------------------------------|--------------------------------|
|--------------------------------|--------------------------------|
|-3-p-0---0---3-p-0---0---3-p-0--|-3-p-0---0---3-p-0---0---3-p-0--|

|--------------------------------|--------------------------------|
|--------------------------------|-------------------------------*|
|--------------------------------|-------------------------------*|
|-3-p-0---0---3-p-0---0---3-p-0--|-3-/-5---5---5---5---3---3-h-5--|

Repeat Fig.3
Repeat Fig.3 (first 12 bars) then:

|--------------------------------|--------------------------------|
|--------------------------------|--------------------------------|
|--------------------------------|--------------------------------|
|-8---8---8---8---8---8---7---7--|-8---8---7---7---8-------7-h-8--|

|--------------------------------|--------------------------------|
|--------------------------------|--------------------------------|
|-5---5---5---5---7-p-5---5---7-p|-5---7-p-5---5---5---5---5---5--|
|--------------------------------|--------------------------------|

|--------------------------------|--------------------------------|
|--------------------------------|--------------------------------|
|--------------------------------|--------------------------------|
|-3-p-0---0---3-p-0---0---3-p-0--|-3-p-0---0---3-p-0---0---3-p-0--|

|--------------------------------|--------------------------------|
|--------------------------------|--------------------------------|
|--------------------------------|--------------------------------|
|-0------------------------------|--------------------------------|

|--------------------------------|--------------------------------|
|--------------------------------|--------------------------------|
|--------------------------------|--------------------------------|
|-3-p-0---0---3-p-0---0---3-p-0--|-3-p-0---0---3-p-0---0---3-p-0--|

|--------------------------------|--------------------------------|
|--------------------------------|--------------------------------|
|--------------------------------|--------------------------------|
|-3-p-0---0---3-p-0---0---3-p-0--|-3-/-5---5---5---5---3---3-h-5--|

|--------------------------------|--------------------------------|
|--------------------------------|--------------------------------|
|--------------------------------|--------------------------------|
|-5---5-------5---5---5-------5--|-5---5-------5---5---5-------5--|

|--------------------------------|--------------------------------|
|--------------------------------|--------------------------------|
|--------------------------------|--------------------------------|
|-5---5-------5---5---5-------5--|-5---5-------5---5---5-------3--|

|--------------------------------:
|--------------------------------:
|--------------------------------:
|-0------------------------------: End.

-----------------------------------------------------------------------


Comments