Metallica - Frantic Chords & Tabs

 

Frantic Chords & Tabs

Metallica Chords & Tabs

Version: 6 Type: Tab 0 ratings
1 star 2 stars 3 stars 4 stars 5 stars
comments

Frantic Tab

Submitted by Doug Lynch


band: Metallica
album: St. Anger
song Frantic

Key
P = palm mute
^^^^ = vibrato


At the beginning, play this about eight times.

E-----------------------------------------------------------------
B------------------------------------------------------------------
G-------------------------------------------------------------------
D------------------------------------------------------------------
A---------------------------------2---------------------------------                                                 --------------- 
E---0-0-0-0-0-0-0-0-0-0-0-0-0-0-0-0------------------------------------------------


Kirk plays that part and James plays this part while Kirk continues with his.Just keep strumming the low E string, but use these fingerings


E-------------------------------------------------------------------
B----------------------------------------------------------------------
G-------------------------------------------------------------------
D--------------------------------------------------------------------
A-------------------------------------------------------------------
E-----14-12-0-0-0-0-13-0-0-0-0-14-12-0-0-0-0-13----------------------------------------------
       P............................................................

Okay, here's the cool part.  Just cut off your distortion and play this with a lot of vibrato.

E------------------------------------------------------------------
B------------------------------------------------------------------
G------------------------------------------------------------------
D-------------------------------------------------------------------
A-------------------------------------------------------------------
E-----14-12-0-1313^^^^-13-14-12-0-1313^^^^-13-14-12-1313^^^^-13-14-12-0-0-0-0-0-0--------------------------------------------------------------------

Then just play the riff above a lot of times with a lot of distortion until you get to the verse.

I'm not really sure how this part goes, but I think it's something like this.
[ Tab from: http://www.guitartabs.cc/tabs/m/metallica/frantic_tab_ver_6.html ]
E-----------------------------------------------------------------
B-----------------------------------------------------------------
G-----------------------------------------------------------------
D-----------------------------------------------------------------
A------7/5-------------7/5----------------------------------------------  
E------5/3-0-0-0-0-0-0-5/3-0-0-0-0-0-0-----------------------------------------------P.............
           P..........     P.......... 
Then after you do that part about four times, play this four times and then go back to the first part of the verse. I'm not sure if it's right, but it's close to it.

E-------------------------------------------------------------------
B------------------------------------------------------------------
G---------------------------------------------------------------------
D-----2-2-2-2----4-4-4-4-----------------------------------------------------
A-----0-0-0-0----2-2-2-2-----------------------------------------------------
E-------------------------------------------------------------------

Okay, the slow part goes like this.  My way is kind of low so I think it's a few octaves higher than this.

E----------------------------------------------------------------------
B--------------------------------------------------------------------
G--------------------------------------------------------------------
D---------------------------------------------------------------------
A--------------------------------------------------------------------
E------14-12-13---14-12-13---8-6-5---8-6-5---------------------------------------------

When James is singing about his lifestyle determines his death style, just strum and palm mute the low E string.





And when he's saying tic tic tic tic toc, just play riff three except at the end palm mute the 12th fret of the low E string instead of the open string.

At the end it goes like this.

E----------------------------------------------------------------------------------
B---------------------------------------------------------------------------------
G----------------------------------------------------------------------------------
D--------------------------------------------------------------------------7---------                                                                                   
A---0-0--0-0--0-0--0-0--------------------------------------------------7----7-------                                                           
E---2-2--2-2--2-2--2-2--9-7--9-7--97--9-9--9-7--9-7-97-9-9--9-7--9-7--9---------7----------------------------------------                  

That's the whole song I think.  If you have any questions or comments, email me at dooglas89@yahoo.com. Enjoy         
Comments