Metallica - Frantic Chords & Tabs

 

Frantic Chords & Tabs

Metallica Chords & Tabs

Version: 4 Type: Tab 0 ratings
1 star 2 stars 3 stars 4 stars 5 stars
comments

Frantic Tab

Submitted by Doug Lynch



Band: Metallica
Album: St. Anger
Song: Frantic




Do this about eight times.

[ Tab from: http://www.guitartabs.cc/tabs/m/metallica/frantic_tab_ver_4.html ]
E------------------------------------------------------------------
B------------------------------------------------------------------
G------------------------------------------------------------------
D------------------------------------------------------------------
A---------------------------------2--------------------------------                                                  2
E---0-0-0-0-0-0-0-0-0-0-0-0-0-0-0-0--------------------------------                                                                                                                
The next part goes like this.  Just keep strumming and palm muting the bottom E string
-------------------------------------------------------------------
-------------------------------------------------------------------
-------------------------------------------------------------------
-------------------------------------------------------------------
-------------------------------------------------------------------
-14-12-0-0-0-0-13-0-0-0-0-14-12-0-0-0-0-13----------------------------------------------
Then cut off the distortion and do this with a lot of vibrato.
----------------------------------------------------------------------
----------------------------------------------------------------------
----------------------------------------------------------------------
--------------------------------------------------------------------
-------------------------------------------------------------------------
14 -14-12-0-1313^^^^^---------------------------------------------------------------
I'm not exactly sure how this part goes, but I think it's something like this during the verse.
-------------------------------------------------------------------------
------------------------------------------------------------------------
---------------------------------------------------------------------------
7/4-------------7/4------------------------------------------------------------  --------------------------------------------------------------------                    7/                                                                                    
5/2-------------5/2---------------------------------------------------------
----0-0-0-0-0-0-----0-0-0-0-0-0--------------------------------------------------
Then do this after you did the part before this a few times palm muted.
------------------------------------------------------------------------
----------------------------------------------------------------------
----------------------------------------------------------------------
-9-9-9-9--7-7-7-7----------------------------------------------------------
-7-7-7-7--5-5-5-5---------------------------------------------------------- 
----------------------------------------------------------------------
Then go back to the first part of the verse


I don't know the other part at the end, but everything else I've covered.
Comments