Metallica - Frantic Chords & Tabs

 

Frantic Chords & Tabs

Metallica Chords & Tabs

Version: 3 Type: Tab 0 ratings
1 star 2 stars 3 stars 4 stars 5 stars
comments

Frantic Tab

Frantic
By alex Weller
*Note: This, as with all the songs on St. Anger, is done on 
baritone/seven string guitars, to help pickup the right sound.

Section 1 - Intro
E ||----------------------------------------------------------------||
B ||----------------------------------------------------------------||
G ||----------------------------------------------------------------||
D ||----------------------------------------------------------------||
A ||----------------------------------------------------------------||
C ||-0-0-0-0-0-0-0-0-3---0-----------0-0-0-0-0-0-0-0-3---0----------||

1b - After drumming kicks in second time (Gtr1).
D ||----------------------------------------------------------------||
A ||----------------------------------------------------------------||
C ||-0-0-0-0-0-0-0-0-3---0---0---0---0-0-0-0-0-0-0-0-3---0---0---0--||
[ Tab from: http://www.guitartabs.cc/tabs/m/metallica/frantic_tab_ver_3.html ]
1c - After drumming kicks in second time (Gtr2)
D ||-----------------------------------------------------------||
A ||-----------------------------------------------------------||
C ||-6\3--0-0-0-0-5---0---0---0---6\3--0-0-0-0-5---0---0---0---||


1c - Throw this in.
D ||----------------------------------------------------------------||
A ||----------------------------------------------------------------||
C ||-0-0-0-0-0-0-0-0-5---0---0---0---0-0-0-0-0-0-0-0-5---0---0---0--||

Section 2 - Main Riff
D ||--------------------------------------------------||
A ||--------------------------------------------------||
C ||-18--15--0--17--17--17----18--15--0--17--17--17---||

D ||------------------------------------------------------------||
A ||------------------------------------------------------------||
C ||-18--15--0--17-----17-----17--18--15--0--0--0-0-0-0-0-0-0-0-||

Section 3 - Chorus Riff
D ||-----------------------------------------------------------||
A ||-----------------------------------------------------------||
C ||-6\3--0-0-0-0-5---0---0---0---6\3--0-0-0-0-5---0---0---0---|| 

3b - Chorus Riff
D ||---------------------------------||
A ||---------------------------------||
C ||-3-3-3-3-3-3-3-3-2---2---2-2-2---||

Comments