Metallica - For Whom The Bell Tolls Chords & Tabs

 

For Whom The Bell Tolls Chords & Tabs

Metallica Chords & Tabs

Version: 5 Type: Tab 8 ratings
1 star 2 stars 3 stars 4 stars 5 stars
comments

For Whom The Bell Tolls Tab

   
Band:  Metallica
Album: Ride The Lightling
Song:  For Whom The Bell Tolls

Copyright (c)  VERTICO 1984
Version 1.0 – 03-03-15

Transcribed By: Maxtheflex
Email:          coolmau@gmx.de


.  - palm mute           /  - slide up to
\  - slide down to       ~  - vibrato
h  - hammer on           b  - Bend
p  - pull off            Suffixes for bend
t  - tap                 f  - full bend    h - half bend
ph - pinched harmonic    q  - quarter bend t - tap bend
*  - see comment         ^  - Hold bend    r release bend
x  - Stuccatto           ~  - vibrato bend
,  - slight palm mute    () - ghost note, sustained note
"  - tremolo note         - Trill

Tunning E B G D A E

INTRO RIFF

GUITAR I

PM . .    . . 
|-------------------------------------------------------------------|
|-------------------------------------------------------------------|
|-------------------------------------------------------------------|
|----------------2--------------------------------------------------|
|--4-4----4-4----2--------------------------------------------------|
|--2-2----2-2----0--------------------------------------------------|

GUITAR II with WAH

|-------------------------------------------------------------------|
|-------------------------------------------------------------------|
|-------------------------------------------------------------------|
|---------------------12-11-10-9-------12---------------------------|
|---------------------------------10-9------------------------------|
|-----------------------------------------10-9----------------------|
GUITAR I

PM . .    . . 
|-------------------------------------------------------------------|
|-------------------------------------------------------------------|
|-------------------------------------------------------------------|
|----------------2--------------------------------------------------|
|--4-4----4-4----2--------------------------------------------------|
|--2-2----2-2----0--------------------------------------------------|

GUITAR II with WAH

|-------------------------------------------------------------------|
|-------------------------------------------------------------------|
|-------------------------------------------------------------------|
|---------------------12-11-10-9-------12---------------------------|
|---------------------------------10-9------------------------------|
|-----------------------------------------10-9----------------------|


GUITAR I

PM . .    . . 
|-------------------------------------------------------------------|
|-------------------------------------------------------------------|
|-------------------------------------------------------------------|
|----------------2--------------------------------------------------|
|--4-4----4-4----2--------------------------------------------------|
|--2-2----2-2----0--------------------------------------------------|

GUITAR II with WAH

|-------------------------------------------------------------------|
|-------------------------------------------------------------------|
|-------------------------------------------------------------------|
|---------------------12-11-10-9-------12---------------------------|
|---------------------------------10-9------------------------------|
|-----------------------------------------10-9----------------------|

GUITAR I

PM . .    . . 
|-------------------------------------------------------------------|
|-------------------------------------------------------------------|
|-------------------------------------------------------------------|
|----------------2--------------------------------------------------|
|--4-4----4-4----2--------------------------------------------------|
|--2-2----2-2----0--------------------------------------------------|

GUITAR II with WAH

|-------------------------------------------------------------------|
|-------------------------------------------------------------------|
|-------------------------------------------------------------------|
|---------------------12-11-10-9-------12---------------------------|
|---------------------------------10-9------------------------------|
|-----------------------------------------10-9----------------------|

GUITAR I

PM . .    . . 
|-------------------------------------------------------------------|
|-------------------------------------------------------------------|
|-------------------------------------------------------------------|
|----------------2--------------------------------------------------|
|--4-4----4-4----2--------------------------------------------------|
|--2-2----2-2----0--------------------------------------------------|

GUITAR II with WAH

|-------------------------------------------------------------------|
|-------------------------------------------------------------------|
|-------------------------------------------------------------------|
|---------------------12-11-10-9-------12---------------------------|
|---------------------------------10-9------------------------------|
|-----------------------------------------10-9----------------------|

GUITAR I

PM . .
|-------------------------------------------------------------------|
|-------------------------------------------------------------------|
|-------------------------------------------------------------------|
|---------2---------------------------------------------------------|
|--4-4----2---------------------------------------------------------|
|--2-2----0---------------------------------------------------------|

GUITAR II with WAH

|-------------------------------------------------------------------|
|-------------------------------------------------------------------|
|-------------------------------------------------------------------|
|--------------12-11-10-9-------12----------------------------------|
|--------------------------10-9-------------------------------------|
|----------------------------------10-9-----------------------------|

GUITAR I

PM . .
|-------------------------------------------------------------------|
|-------------------------------------------------------------------|
|-------------------------------------------------------------------|
|---------2---------------------------------------------------------|
|--4-4----2---------------------------------------------------------|
|--2-2----0---------------------------------------------------------|

GUITAR II with WAH

|-------------------------------------------------------------------|
|-------------------------------------------------------------------|
|-------------------------------------------------------------------|
|--------------12-11-10-9-------12----------------------------------|
|--------------------------10-9-------------------------------------|
|----------------------------------10-9-----------------------------|

GUITAR I

PM . .
|-------------------------------------------------------------------|
|-------------------------------------------------------------------|
|-------------------------------------------------------------------|
|---------2---------------------------------------------------------|
|--4-4----2---------------------------------------------------------|
|--2-2----0---------------------------------------------------------|

GUITAR II with WAH

|-------------------------------------------------------------------|
|-------------------------------------------------------------------|
|-------------------------------------------------------------------|
|--------------12-11-10-9-------12----------------------------------|
|--------------------------10-9-------------------------------------|
|----------------------------------10-9-----------------------------|

GUITAR I

PM . .
|-------------------------------------------------------------------|
|-------------------------------------------------------------------|
|-------------------------------------------------------------------|
|---------2---------------------------------------------------------|
|--4-4----2---------------------------------------------------------|
|--2-2----0---------------------------------------------------------|

GUITAR II with WAH

|-------------------------------------------------------------------|
|-------------------------------------------------------------------|
|-------------------------------------------------------------------|
|--------------12-11-10-9-------12----------------------------------|
|--------------------------10-9-------------------------------------|
|----------------------------------10-9-----------------------------|

GUITAR I & II

PM . .
|-------------------------------------------------------------------|
|-------------------------------------------------------------------|
|-------------------------------------------------------------------|
|---------2---------------------------------------------------------|
|--4-4----2---------------------------------------------------------|
|--2-2----0---------------------------------------------------------|

GUITAR I & II

PM . .
|-------------------------------------------------------------------|
|-------------------------------------------------------------------|
|-------------------------------------------------------------------|
|---------2---------------------------------------------------------|
|--4-4----2---------------------------------------------------------|
|--2-2----0---------------------------------------------------------|

GUITAR I & II

PM . .
|-------------------------------------------------------------------|
|-------------------------------------------------------------------|
|-------------------------------------------------------------------|
|---------2---------------------------------------------------------|
|--4-4----2---------------------------------------------------------|
|--2-2----0---------------------------------------------------------|

GUITAR I & II

PM .  .  .  .    .  .  .  .    .  .  .  .    .  .  .  .
|-------------------------------------------------------------------|
|-------------------------------------------------------------------|
|-------------------------------------------------------------------|
|-----------------------------------------------------3-------------|
|--2--5--4--3----2--5--4--3----2--5--4--3----2--4--5--1-------------|
|--0--3--2--1----0--3--2--1----0--3--2--1----0--2--3----------------|

GUITAR I & II

PM .  .  .  .    .  .  .  .    .  .  .  .    .  .  .  .
|-------------------------------------------------------------------|
|-------------------------------------------------------------------|
|-------------------------------------------------------------------|
|-----------------------------------------------------3-------------|
|--2--5--4--3----2--5--4--3----2--5--4--3----2--4--5--1-------------|
|--0--3--2--1----0--3--2--1----0--3--2--1----0--2--3----------------|

GUITAR I & II

PM .  .  .  .    .  .  .  .    .  .  .  .    .  .  .  .
|-------------------------------------------------------------------|
|-------------------------------------------------------------------|
|-------------------------------------------------------------------|
|-----------------------------------------------------3-------------|
|--2--5--4--3----2--5--4--3----2--5--4--3----2--4--5--1-------------|
|--0--3--2--1----0--3--2--1----0--3--2--1----0--2--3----------------|

GUITAR I & II

PM .  .  .  .    .  .  .  .    .  .  .  .    .  .  .  .
|-------------------------------------------------------------------|
|-------------------------------------------------------------------|
|-------------------------------------------------------------------|
|-----------------------------------------------------3-------------|
|--2--5--4--3----2--5--4--3----2--5--4--3----2--4--5--1-------------|
|--0--3--2--1----0--3--2--1----0--3--2--1----0--2--3----------------|

GUITAR I

|-------------------------------------------------------------------|
|-------------------------------------------------------------------|
|-------------------------------------------------------------------|
|--2----------------------------------------------------------------|
|--2----------------------------------------------------------------|
|--0----------------------------------------------------------------|

GUITAR II

|---------------------------------------------------------------------------|
|---------------------------------------------------------------------------|
|----------12-9-11----9-11-12-9-11----9-11-12-9-11----9-11-12-9-11----9-11--|
|------------------12--------------12--------------12--------------12-------|
|---------------------------------------------------------------------------|
|---------------------------------------------------------------------------|

GUITAR I

PM                                 .
|--------------------------------------------------------------------|
|--------------------------------------------------------------------|
|--------------------------------------------------------------------|
|--------------------------------------------------------------------|
|--5-------------------------------5---------------------------------|
|--3-------------------------------3---------------------------------|

GUITAR II

|--------------------------------------------------------------------|
|--------------------------------------------------------------------|
|--12-9-11----9-11-12-9-11----9-11-12-9-11----9-11-12-9-11----9-11---|
|----------12--------------12--------------12--------------12--------|
|--------------------------------------------------------------------|
|--------------------------------------------------------------------|

GUITAR I

|-------------------------------------------------------------------|
|-------------------------------------------------------------------|
|-------------------------------------------------------------------|
|--2----------------------------------------------------------------|
|--2----------------------------------------------------------------|
|--0----------------------------------------------------------------|




GUITAR II

|-------------------------------------------------------------------|
|-------------------------------------------------------------------|
|--12-9-11----9-11-12-9-11----9-11-12-9-11----9-11-12-9-11----9-11--|
|----------12--------------12--------------12--------------12-------|
|-------------------------------------------------------------------|
|-------------------------------------------------------------------|

GUITAR I

|-------------------------------------------------------------------|
|-------------------------------------------------------------------|
|-------------------------------------------------------------------|
|-------------------------------------------------------------------|
|--5-------------------------------10--------------7----------------|
|--3-------------------------------8---------------5----------------|

GUITAR II

|-------------------------------------------------------------------|
|-------------------------------------------------------------------|
|--12-9-11----9-11-12-9-11----9-11-12-9-11----9-11-12-9-11----9-11--|
|----------12--------------12--------------12--------------12-------|
|-------------------------------------------------------------------|
|-------------------------------------------------------------------|

GUITAR I

|-------------------------------------------------------------------|
|-------------------------------------------------------------------|
|-------------------------------------------------------------------|
|--2----------------------------------------------------------------|
|--2----------------------------------------------------------------|
|--0----------------------------------------------------------------|

GUITAR II

|-------------------------------------------------------------------|
|-------------------------------------------------------------------|
|--12-9-11----9-11-12-9-11----9-11-12-9-11----9-11-12-9-11----9-11--|
|----------12--------------12--------------12--------------12-------|
|-------------------------------------------------------------------|
|-------------------------------------------------------------------|

GUITAR I

PM                                 .
|-------------------------------------------------------------------|
|-------------------------------------------------------------------|
|-------------------------------------------------------------------|
|-------------------------------------------------------------------|
|--5-------------------------------5--------------------------------|
|--3-------------------------------3--------------------------------|

GUITAR II

|-------------------------------------------------------------------|
|-------------------------------------------------------------------|
|--12-9-11----9-11-12-9-11----9-11-12-9-11----9-11-12-9-11----9-11--|
|----------12--------------12--------------12--------------12-------|
|-------------------------------------------------------------------|
|-------------------------------------------------------------------|

GUITAR I

|-------------------------------------------------------------------|
|-------------------------------------------------------------------|
|-------------------------------------------------------------------|
|--2----------------------------------------------------------------|
|--2----------------------------------------------------------------|
|--0----------------------------------------------------------------|

GUITAR II

|-------------------------------------------------------------------|
|-------------------------------------------------------------------|
|--12-9-11----9-11-12-9-11----9-11-12-9-11----9-11-12-9-11----9-11--|
|----------12--------------12--------------12--------------12-------|
|-------------------------------------------------------------------|
|-------------------------------------------------------------------|

GUITAR II

|-------------------------------------------------------------------|
|-------------------------------------------------------------------|
|-------------------------------------------------------------------|
|-------------------------------------------------------------------|
|--5-------------------------------10--------------7----------------|
|--3-------------------------------8---------------5----------------|

GUITAR II

|-------------------------------------------------------------------|
|-------------------------------------------------------------------|
|--12-9-11----9-11-12-9-11----9-11-12-9-11----9-11-12-9-11----9-11--|
|----------12--------------12--------------12--------------12-------|
|-------------------------------------------------------------------|
|-------------------------------------------------------------------|

CHORUS RIFF

GUITAR I & II
[ Tab from: http://www.guitartabs.cc/tabs/m/metallica/for_whom_the_bell_tolls_tab_ver_5.html ]
PM . . .     . . .     . . .           . . .     . . .     . . . 
|-----------------------------------------------------------------------------|
|-----------------------------------------------------------------------------|
|-----------------------------------------------------------------------------|
|-----------------------------------------------------------------------------|
|---------5---------7---------5--8--4---------5---------7---------5--8--4--3--|
|--0-0-0--3--0-0-0--5--0-0-0--3--6--2--0-0-0--3—-0-0-0--5--0-0-0--3--6--2--1--|

PM . . .     . . .     . . .           . . .     . . .     . . . 
|-----------------------------------------------------------------------------|
|-----------------------------------------------------------------------------|
|-----------------------------------------------------------------------------|
|-----------------------------------------------------------------------------|
|---------5---------7---------5--8--4---------5---------7---------5--8--4--3--|
|--0-0-0--3--0-0-0--5--0-0-0--3--6--2--0-0-0--3—-0-0-0--5--0-0-0--3--6--2--1--|

VERSE RIFF

GUITAR I & II

|--------------------------------------------------------------------|
|--------------------------------------------------------------------|
|--------------------------------------------------------------------|
|--2-----------------------------------------------------------------|
|--2-----------------------------------------------------------------|
|--0-----------------------------------------------------------------|
      Make us fight on the hills in then early day

PM                       .
|--------------------------------------------------------------------|
|--------------------------------------------------------------------|
|--------------------------------------------------------------------|
|--------------------------------------------------------------------|
|--5------------------------5----------------------------------------|
|--3------------------------3----------------------------------------|
      Constant chill deep inside

|--------------------------------------------------------------------|
|--------------------------------------------------------------------|
|--------------------------------------------------------------------|
|--2-----------------------------------------------------------------|
|--2-----------------------------------------------------------------|
|--0-----------------------------------------------------------------|
      Shouting gun on they run through the endless grey

|--------------------------------------------------------------------|
|--------------------------------------------------------------------|
|--------------------------------------------------------------------|
|--------------------------------------------------------------------|
|--5----------------------------10------------7----------------------|
|--3----------------------------8-------------5----------------------|
      On they fight for they’re right yes but who’s to say

|--------------------------------------------------------------------|
|--------------------------------------------------------------------|
|--------------------------------------------------------------------|
|--2-----------------------------------------------------------------|
|--2-----------------------------------------------------------------|
|--0-----------------------------------------------------------------|
      For a hill men will kill why they do not know

PM                                                .
|--------------------------------------------------------------------|
|--------------------------------------------------------------------|
|--------------------------------------------------------------------|
|--------------------------------------------------------------------|
|--5-----------------------------5-----------------------------------|
|--3-----------------------------3-----------------------------------|
      Suffered wounds test their pride 

|--------------------------------------------------------------------|
|--------------------------------------------------------------------|
|--------------------------------------------------------------------|
|--2-----------------------------------------------------------------|
|--2-----------------------------------------------------------------|
|--0-----------------------------------------------------------------|
      Men of five still alive through the raging glow

|--------------------------------------------------------------------|
|--------------------------------------------------------------------|
|--------------------------------------------------------------------|
|--------------------------------------------------------------------|
|--5-----------------------10-------------7--------------------------|
|--3-----------------------8--------------5--------------------------|
      Gone insane from the pain that they surely know

CHORUS RIFF

GUITAR I & II

PM . . .     . . .     . . .           . . .     . . .     . . . 
|-----------------------------------------------------------------------------|
|-----------------------------------------------------------------------------|
|-----------------------------------------------------------------------------|
|-----------------------------------------------------------------------------|
|---------5---------7---------5--8--4---------5---------7---------5--8--4--3--|
|--0-0-0--3--0-0-0--5--0-0-0--3--6--2--0-0-0--3—-0-0-0--5--0-0-0--3--6--2--1--|
                                 For whom the bell tolls             Time
                                                                        marches

PM . . .     . . .     . . .           . . .     . . .     . . . 
|-----------------------------------------------------------------------------|
|-----------------------------------------------------------------------------|
|-----------------------------------------------------------------------------|
|-----------------------------------------------------------------------------|
|---------5---------7---------5--8--4---------5---------7---------5--8--4--3--|
|--0-0-0--3--0-0-0--5--0-0-0--3--6--2--0-0-0--3—-0-0-0--5--0-0-0--3--6--2--1--|
   on                            For whom the bell tolls

|-------------------------------------------------------------------|
|-------------------------------------------------------------------|
|-------------------------------------------------------------------|
|--2----------------------------------------------------------------|
|--2----------------------------------------------------------------|
|--0----------------------------------------------------------------|

INTERLUDE

GUITAR II

|-------------------------------------------------------------------|
|-------------------------------------------------------------------|
|------12-9-11----9-------------------------------------------------|
|--------------12---11-12-9-11----9-10------------------------------|
|------------------------------12-----------------------------------|
|-------------------------------------------------------------------|

GUITAR I

|-------------------------------------------------------------------|
|-------------------------------------------------------------------|
|-------------------------------------------------------------------|
|--------------------------------------2----------------------------|
|--------------------------------------2----------------------------|
|--------------------------------------0----------------------------|

GUITAR II

|-------------------------------------------------------------------|
|-------------------------------------------------------------------|
|--12-9-11----9-----------------------------------------------------|
|----------12---11-12-9-11----9-10----------------------------------|
|--------------------------12---------------------------------------|
|-------------------------------------------------------------------|

GUITAR I
PM                                 .    . . .  .    . . .
|-------------------------------------------------------------------|
|-------------------------------------------------------------------|
|-------------------------------------------------------------------|
|-------------------------------------------------------------------|
|----------------------------------5----5-5-5--5----5-5-5-----------|
|----------------------------------3----3-3-3--3----3-3-3-----------|

GUITAR II

|-------------------------------------------------------------------|
|-------------------------------------------------------------------|
|--12-9-11----9-----------------------------------------------------|
|----------12---11-12-9-11----9-10----------------------------------|
|--------------------------12---------------------------------------|
|-------------------------------------------------------------------|

GUITAR I

|-------------------------------------------------------------------|
|-------------------------------------------------------------------|
|-------------------------------------------------------------------|
|----------------------------------4--------------------------------|
|----------------------------------2--------------------------------|
|-------------------------------------------------------------------|

GUITAR II

|-------------------------------------------------------------------|
|-------------------------------------------------------------------|
|--12-9-11----9-----------------------------------------------------|
|----------12---11-12-9-11----9-10----------------------------------|
|--------------------------12---------------------------------------|
|-------------------------------------------------------------------|

GUITAR I
|----------------------------------7--------------------------------|
|-------------------------------------------------------------------|
|-------------------------------------------------------------------|
|-------------------------------------------------------------------|
|-------------------------------------------------------------------|
|-------------------------------------------------------------------|

GUITAR II

|-------------------------------------------------------------------|
|-------------------------------------------------------------------|
|--12-9-11----9-----------------------------------------------------|
|----------12---11-12-9-11----9-10----------------------------------|
|--------------------------12---------------------------------------|
|-------------------------------------------------------------------|

GUITAR I
PM                                 .    . . .  .    . . .
|-------------------------------------------------------------------|
|-------------------------------------------------------------------|
|-------------------------------------------------------------------|
|-------------------------------------------------------------------|
|----------------------------------5----5-5-5--5----5-5-5-----------|
|----------------------------------3----3-3-3--3----3-3-3-----------|

GUITAR II

|-------------------------------------------------------------------|
|-------------------------------------------------------------------|
|--12-9-11----9-----------------------------------------------------|
|----------12---11-12-9-11----9-10----------------------------------|
|--------------------------12---------------------------------------|
|-------------------------------------------------------------------|

GUITAR I

|-------------------------------------------------------------------|
|-------------------------------------------------------------------|
|-------------------------------------------------------------------|
|----------------------------------4--------------------------------|
|----------------------------------2--------------------------------|
|-------------------------------------------------------------------|

VERSE RIFF

GUITAR I & II

|--------------------------------------------------------------------|
|--------------------------------------------------------------------|
|--------------------------------------------------------------------|
|--2-----------------------------------------------------------------|
|--2-----------------------------------------------------------------|
|--0-----------------------------------------------------------------|
      Take a look to the sky just before you die

PM                       .
|--------------------------------------------------------------------|
|--------------------------------------------------------------------|
|--------------------------------------------------------------------|
|--------------------------------------------------------------------|
|--5------------------------5----------------------------------------|
|--3------------------------3----------------------------------------|
      It’s the last time he will

|--------------------------------------------------------------------|
|--------------------------------------------------------------------|
|--------------------------------------------------------------------|
|--2-----------------------------------------------------------------|
|--2-----------------------------------------------------------------|
|--0-----------------------------------------------------------------|
      Blackened roar massive roar fills the crumbling sky

|--------------------------------------------------------------------|
|--------------------------------------------------------------------|
|--------------------------------------------------------------------|
|--------------------------------------------------------------------|
|--5----------------------------10------------7----------------------|
|--3----------------------------8-------------5----------------------|
      Shattered goal fills his soul with a ruthless cry

|--------------------------------------------------------------------|
|--------------------------------------------------------------------|
|--------------------------------------------------------------------|
|--2-----------------------------------------------------------------|
|--2-----------------------------------------------------------------|
|--0-----------------------------------------------------------------|
      Stranger now are his eyes to his mystery

PM                                                .
|--------------------------------------------------------------------|
|--------------------------------------------------------------------|
|--------------------------------------------------------------------|
|--------------------------------------------------------------------|
|--5-----------------------5-----------------------------------------|
|--3-----------------------3-----------------------------------------|
      Hears the silence so loud

|--------------------------------------------------------------------|
|--------------------------------------------------------------------|
|--------------------------------------------------------------------|
|--2-----------------------------------------------------------------|
|--2-----------------------------------------------------------------|
|--0-----------------------------------------------------------------|
      crack of dawn all is gone expect the will to be

|--------------------------------------------------------------------|
|--------------------------------------------------------------------|
|--------------------------------------------------------------------|
|--------------------------------------------------------------------|
|--5-------------------------10---------7----------------------------|
|--3-------------------------8----------5----------------------------|
      Now they see what will be blinded eyes to see 

CHORUS RIFF

GUITAR I & II

PM . . .     . . .     . . .           . . .     . . .     . . . 
|-----------------------------------------------------------------------------|
|-----------------------------------------------------------------------------|
|-----------------------------------------------------------------------------|
|-----------------------------------------------------------------------------|
|---------5---------7---------5--8--4---------5---------7---------5--8--4--3--|
|--0-0-0--3--0-0-0--5--0-0-0--3--6--2--0-0-0--3—-0-0-0--5--0-0-0--3--6--2--1--|
                                 For whom the bell tolls             Time
                                                                        marches

PM . . .     . . .     . . .           . . .     . . .     . . . 
|-----------------------------------------------------------------------------|
|-----------------------------------------------------------------------------|
|-----------------------------------------------------------------------------|
|-----------------------------------------------------------------------------|
|---------5---------7---------5--8--4---------5---------7---------5--8--4--3--|
|--0-0-0--3--0-0-0--5--0-0-0--3--6--2--0-0-0--3—-0-0-0--5--0-0-0--3--6--2--1--|
   on                            For whom the bell tolls

END RIFF

GUITAR I
|-------------------------------------------------------------------|
|-------------------------------------------------------------------|
|-------------------------------------------------------------------|
|--9----11-11---9----11-11-12--12----9----11-11---9----11-11-12--12-|
|--7----9--9----7----9--9--10--10----7----9--9----7----9--9--10--12-|
|-------------------------------------------------------------------|

|-------------------------------------------------------------------|
|-------------------------------------------------------------------|
|-------------------------------------------------------------------|
|--9----11-11---9----11-11-12--12----9----11-11---9----11-11-12--12-|
|--7----9--9----7----9--9--10--10----7----9--9----7----9--9--10--12-|
|-------------------------------------------------------------------|

|-------------------------------------------------------------------|
|-------------------------------------------------------------------|
|-------------------------------------------------------------------|
|--9----11-11---9----11-11-12--12----9----11-11---9----11-11-12--12-|
|--7----9--9----7----9--9--10--10----7----9--9----7----9--9--10--12-|
|-------------------------------------------------------------------|

|-------------------------------------------------------------------|
|-------------------------------------------------------------------|
|-------------------------------------------------------------------|
|--9----11-11---9----11-11-12--12----9----11-11---9----11-11-12--12-|
|--7----9--9----7----9--9--10--10----7----9--9----7----9--9--10--12-|
|-------------------------------------------------------------------|

GUITAR II PLAYS SOMETHING WITH WAH. YOU MUST JUST IMPROVISE A LITTLE BIT.



HAVE FUN!!!!!!
METALLICA RULES!!!!!!

SEE MY OTHER TABS:

AC/DC           TNT (with solo!!!)
IN EXTREO  VOLLMOND
Comments