Metallica - For Whom The Bell Tolls Chords & Tabs

 

For Whom The Bell Tolls Chords & Tabs

Metallica Chords & Tabs

Version: 12 Type: Tab 0 ratings
1 star 2 stars 3 stars 4 stars 5 stars
comments

For Whom The Bell Tolls Tab

   
-------------------------------------------------------------------------------
			     For Whom The Bells Tolls - Metallica
-------------------------------------------------------------------------------
Tabbed by Lirikal	
Email lirikal2000@hotmail.com

Tuning: E A D G B E

| /  slide up
| \  slide down
| h  hammer-on
| p  pull-off
| ~  vibrato
| +  harmonic
| x  Mute note


INTRO:

Guitar 1:

    F#5       E5                              F#5       E5 x8
e:---------------|------------------------------------------|
B:---------------|------------------------------------------|
G:---------------|*----------------------------------------*|
D:---------------|*----------------------------------------*|
A:--4-4--4-4--2--|----------------------------4-4--4-4--2---|
E:--2-2--2-2--0--|----------------------------2-2--2-2--0---|
                                                            |
Guitar 2:                                                   |
                                                            |
e:---------------|------------------------------------------|
B:---------------|------------------------------------------|
G:---------------|*--7--6--5--4-4--------7-----------------*|
D:---------------|*----------------5--4--------------------*|
A:---------------|-------------------------5--4~------------|
E:---------------|------------------------------------------|


       E5 G5 F#5F5 E5 G5 F#5F5 E5 G5 F#5F5 E5 F#5G5 A5
e:-|---------------------------------------------------|
B:-|---------------------------------------------------|
G:-|*--------------------------------------------------|
D:-|*-----------------------------------------------2--|
A:-|---2--5--4--3--2--5--4--3--2--5--4--3--2--4--5--0--|
E:-|---0--3--2--1--0--3--2--1--0--3--2--1--0--2--3-----|


    E5 G5 F#5F5 E5 G5 F#5F5 E5 G5 F#5F5 E5 G5 F#5B5  x2
e:-----------------------------------------------------|
B:-----------------------------------------------------|
G:----------------------------------------------------*|
D:-----------------------------------------------4----*|
A:--2--5--4--3--2--5--4--3--2--5--4--3--2--5--4--2-----|
E:--0--3--2--1--0--3--2--1--0--3--2--1--0--3--2--------|


       E5       G5                 E5      G5   C5   A5 x2
e:-|------------------------------------------------------|
B:-|------------------------------------------------------|
G:-|*----------------------------------------------------*|
D:-|*-------------------------------------------5----2---*|
A:-|---2--------5-------5----------2-------5----3----0----|
E:-|---0--------3-------3----------0-------3--------------|
                                                          |
                                                      x16 |
e:-|------------------------------------------------------|
B:-|------------------------------------------------------|
G:-|*--12--9--11------9--11--12--9--11------9--11--------*|
D:-|*-------------12--------------------12---------------*|
A:-|------------------------------------------------------|
E:-|------------------------------------------------------|


            G5       A5       G5 Bb5F#5     G5       A5       G5   Bb5F#5F5 x2
e:-|-------------------------------------------------------------------------|
B:-|-------------------------------------------------------------------------|
G:-|*-----------------------------------------------------------------------*|
D:-|*----------------------------3----------------------------------3-------*|
A:-|--------5--------7--------5--1-4--------5--------7--------5-----1-4-3----|
E:-|--0-0-0-3--0-0-0-5--0-0-0-3----2--0-0-0-3--0-0-0-5--0-0-0-3-0-0---2-1----|


VERSE:

[ Tab from: http://www.guitartabs.cc/tabs/m/metallica/for_whom_the_bell_tolls_tab_ver_12.html ]
       E5       G5                 E5      G5   C5   A5 x2
e:-|------------------------------------------------------|
B:-|------------------------------------------------------|
G:-|*----------------------------------------------------*|
D:-|*-------------------------------------------5----2---*|
A:-|---2--------5-------5----------2-------5----3----0----|
E:-|---0--------3-------3----------0-------3--------------|


CHORUS:


            G5       A5       G5 Bb5F#5     G5       A5       G5   Bb5F#5F5 x2
e:-|-------------------------------------------------------------------------|
B:-|-------------------------------------------------------------------------|
G:-|*-----------------------------------------------------------------------*|
D:-|*----------------------------3----------------------------------3-------*|
A:-|--------5--------7--------5--1-4--------5--------7--------5-----1-4-3----|
E:-|--0-0-0-3--0-0-0-5--0-0-0-3----2--0-0-0-3--0-0-0-5--0-0-0-3-0-0---2-1----|


INTERLUDE:

e:-|-------------------------------------------------|
B:-|-------------------------------------------------|
G:-|*-12--9--11------9-------------------------------|
D:-|*------------12-----11--12--9--11------9---------|
A:-|-----------------------------------12-----10-----|
E:-|-------------------------------------------------|
                                                     |
      E5                                          E5 |
e:-|-------------------------------------------------|
B:-|-------------------------------------------------|
G:-|*------------------------------------------------|
D:-|*------------------------------------------------|
A:-|--2-------------------------------------------2--|
E:-|--0-------------------------------------------0--|



e:-----------------------------------------------------------------|
B:-----------------------------------------------------------------|
G:--12--9--11------9-----------------------------------------------|
D:-------------12-----11--12--9--11------9-------------------------|
A:-----------------------------------12-----10---------------------|
E:-----------------------------------------------------------------|
                                                                   |
    E5                                          G5                 |
e:-----------------------------------------------------------------|
B:-----------------------------------------------------------------|
G:-----------------------------------------------------------------|
D:-----------------------------------------------------------------|
A:--2-------------------------------------------5--5-5-5-5--5-5-5--|
E:--0-------------------------------------------3--3-3-3-3--3-3-3--|

                                                  x2
e:--------------------------------------------------|
B:--------------------------------------------------|
G:--12--9--11------9-------------------------------*|
D:-------------12-----11--12--9--11------9---------*|
A:-----------------------------------12-----10------|
E:--------------------------------------------------|
                                                    |
    E5                                          B5  |
e:--------------------------------------------------|
B:--------------------------------------------------|
G:-------------------------------------------------*|
D:----------------------------------------------4--*|
A:--2-------------------------------------------2---|
E:--0-----------------------------------------------|

OUTRO:

       E5     F#5          E5     F#5        G5      x11(and fade out)
e:-|-----------------------------------------------------|
B:-|-----------------------------------------------------|
G:-|*---------------------------------------------------*|
D:-|*--2------4----4-------2------4----4-----5----5-----*|
A:-|---2------4----4-------2------4----4-----5----5------|
E:-|---0------2----2-------0------2----2-----3----3------|

ENJOY IT!!
===============================================================================
Comments