Metallica - For Whom The Bell Tolls Chords & Tabs

 

For Whom The Bell Tolls Chords & Tabs

Metallica Chords & Tabs

Version: 5 Type: Bass Tab 0 ratings
1 star 2 stars 3 stars 4 stars 5 stars
comments

For Whom The Bell Tolls Bass Tab

Tabbed by Lucas

I made this tab from memory and this is not 100% right.
you can find this solo from Live Shit-dvd.

Play with distortion and wah-wah
19-18-17-16-------19----------19-18-17-16-------19-16h19p16--16h19p16----|
------------17-16-------------------------17-16------------19--------19--|
---------------------17-16-----------------------------------------------|
---------------------------x\--------------------------------------------|
[ Tab from: http://www.guitartabs.cc/tabs/m/metallica/for_whom_the_bell_tolls_btab_ver_5.html ]
-16h19p16---16h19p16-------19-18-17-16-------19------------|
---------19----------19----------------17-16----17-16------|
-----------------------------------------------------------|
------------------------17\----------------------------x\--|

-19-18-17-16------19b(21)r19b(21)------------------|
------------17-16----------------17-16-------------|
---------------------------------------17-16-------|
---------------------------------------------17\---|
That`s it! If you have better version send it to me. (luubass@hotmail.com)
Comments