Metallica - For Whom The Bell Tolls Chords & Tabs

 

For Whom The Bell Tolls Chords & Tabs

Metallica Chords & Tabs

Version: 2 Type: Bass Tab 1 rating
1 star 2 stars 3 stars 4 stars 5 stars
comments

For Whom The Bell Tolls Bass Tab

                                                          For Whom The Bell Tolls - Metallica
                        Intro

G--------19-18-17-16------18-------------------------
D--------------------17/16--------------------------- X6
A-----------------------------17-16------------------
E----------------------------------------------------

                      Riff 1

G----------------------------------------------------
D---------------------------------------------------- 
A-------------------------------0-------------------- X4 
E-----0-3-2-1--0-3-2-1--0-3-2-1----------------------

                       Main Riff
[ Tab from: http://www.guitartabs.cc/tabs/m/metallica/for_whom_the_bell_tolls_btab_ver_2.html ]
G-------------------------------------|----------------|
D-------------------------------------|--Drum Fill-----|
A-------------------------------------|----------------| X2
E--0---------------3------------8-5---|----------------|
                 ALso Main Riff
G-----------------------------------------------------
D-----------------------------------------------------
A----------------------------------------------------- X1
E--0---------------3------------8-8-8-5-5-5-----------

                     Chorus

G---------------------------------------------------------------------------------------
D---------------------------------------------------------------------------------------
A--------------------------------------------------------------------------------------- X2
E----0-0-0-3--0-0-0-5--0-0-0-3-6-2----0-0-0-3-0-0-0-5-0-0-0-3-0-0-6-2-1-0---------------

                      Fade Out
              
G------------------------------------------------------
D------------------------------------------------------
A------------------------------------------------------ X20
E--0-22-0-22-33----------------------------------------
  
                       Enjoy!
Comments