Metallica - For Whom The Bell Tolls Chords & Tabs

 

For Whom The Bell Tolls Chords & Tabs

Metallica Chords & Tabs

Version: 1 Type: Bass Tab 11 ratings
1 star 2 stars 3 stars 4 stars 5 stars
comments

For Whom The Bell Tolls Bass Tab

Song: For whom the bell tolls
Artist:Metallica
I love this song I've been playin it since i started bass.
If you dont think its right its ok coz i made it up from listening to it live 
so bit of it might be iffy but it sounds good

Legend:
/ Slide
P pop

INTRO

G---19-18-17-16-------18-------
D---------------/17-16---------
A------------------------17-16-
E------------------------------ x8

PREVERSE

G---------------------------------------------------------------------
D---------------------------------------------------------------------
A---------------------------------------------------------------------
E---0-3-2-1-0-3-2-1-0-3-2-1-0-2-3-4--0-3-2-1-0-3-2-1-0-3-2-1-0-2-3-4/- x4
[ Tab from: http://www.guitartabs.cc/tabs/m/metallica/for_whom_the_bell_tolls_btab.html ]
VERSE
                     p
G-------------------------------------------------
D--------------------10---------------------------
A-------------------------------------------------
E---0-----------3----8----0---------3----8---5---- x2


CHORUS

G------------------------------------------------------------------
D------------------------------------------------------------------
A------------------------------------------------------------------
E--0-0-0-3--0-0-0-5--0-0-0-3-6-2---0-0-0-3--0-0-0-5--0-0-0-3-6-2-1- x2

OTHER VERSE PRECHORUS THING

G----------------------------------------------------
D----------------------------------------------------
A----------------------------------------------------
E---0---3-333-3---0---8---0---5---3-333-3---0---8---- x1 (leads to chorus)

CHORUS

VERSE

ENDTRO

G---------------------------------------
D---------------------------------------
A---------------------------------------
E---0----2-2----0-----2-2---3-3----0---- X20

The guitar solos at the end so keep the volume down

My e-mails down at the moment so ill post when it comes around
Enjoy the tab Basslegend aka mckirkn aka dan 

Comments