Metallica - Fixxxer Chords & Tabs

 

Fixxxer Chords & Tabs

Metallica Chords & Tabs

Version: 1 Type: Bass Tab 0 ratings
1 star 2 stars 3 stars 4 stars 5 stars
comments

Fixxxer Bass Tab

   
Fixxxer - Metallica - Reload
tabbed by Andrew Reasoner (music-box@juno.com)

Intro

gb-------------------------------------------------------------
db-------------------------------------------------------------
ab-------------------------------------------------------------
eb-0-0-0-0-0-0-0-0-0-0-0-0-0-0-0-0-0-0-0-0-0-0-0-0-0-0-0-0-0-0-
  Main riff
gb--------------------------------------
Db---------------------------------4-5-7
Ab------7-5-7--------8------7-5-7-------
Eb--0-0--------6-5-6----0-0-------------

[ Tab from: http://www.guitartabs.cc/tabs/m/metallica/fixxxer_btab.html ]
verse
Gb----------4----------4----------4----------2
Db--4-5-4-2----4-5-4-2----4-5-4-2----4-5-4-2--
Ab--------------------------------------------
Eb--------------------------------------------


end
gb-------------------------------------------------------------
db-------------------------------------------------------------
ab-------------------------------------------------------------
eb-0-0-0-0-0-3-0-0-0-0-0-3-0-0-0-0-0-3-0-0-0-0-0-3-0-0-0-0-0-3-


Look at the Dynamic Metallica Bootleg Page at
                 http://pluto.njcc.com/~carlr441/skip.htm
Join the Until It sleep  Metallica  Ring at
                  http://pluto.njcc.com/~carlr441/until.htm
Look at my metallica site at  http://pluto.njcc.com/~carlr441/METAL2.HTM


Comments