Metallica - Fade To Black(live) Chords & Tabs

 

Fade To Black(live) Chords & Tabs

Metallica Chords & Tabs

Version: 1 Type: Tab 1 rating
1 star 2 stars 3 stars 4 stars 5 stars
comments

Fade To Black(live) Tab

   
(Kirk)
e| ---------------------------|-3-----------------------|-10------------------|
B|.-------------------------5-|----------------------12-|---------------------|
G| -2------------------5------|------------------12-----|---------------------|
D|.---------------------------|-------------------------|---------------------|
A| ---------------------------|-------------------------|---------------------|
E| ---------------------------|-------------------------|---------------------|
 |                                                                            |
 |                                                                            |
 | Rhy. Fig. 2 (James)                                                        |
 |    H                 H                         H                           |
e| -------------0-------------|-----------0-------------|-----------3-----3--3|
B|.-0--1--------------------1-|(1)--1-----------------0-|(0)--3---------------|
G| -2-----2-----------0--2----|-0---------------0--2----|-0---------------2--0|
D|.-2--------2-----2----------|-2------2-----2----------|--------0-----0------|
A| -0-------------------------|-3-----------------------|---------------------|
E| ---------------------------|-------------------------|-3-------------------|

[ Tab from: http://www.guitartabs.cc/tabs/m/metallica/fade_to_blacklive_tab.html ]
    Em            sl    Am                           C
                                                                       T   T
e |-------------------|----------------------------|-3------------------------|
B |-8--------0--(1)/3-|--------------------------5-|-----------------------12-|
G |-9--------0--(2)/4-|-2-------------------5------|-------------------12-----|
D |-9-----------------|----------------------------|--------------------------|
A |-------------------|----------------------------|--------------------------|
E |-------------------|----------------------------|--------------------------|
  |                                                                           |
  |                                                                           |
  |                                                                           |
  |               sl      H                  H                         H      |
e |-------------------|-------------0--------------|-----------0--------------|
B |----------0--(1)/3-|-0--1---------------------1-|(1)--1-----------------0--|
G |-0--------0--(2)/4-|-2-----2------------0--2----|-0---------------0--2-----|
D |----2--------------|-2--------2-----2-----------|-2------2-----2-----------|
A |-------2-----------|-0--------------------------|-3------------------------|
E |-0-----------------|----------------------------|--------------------------|


    G                           Em
       T                    T      T
e |-10--------------------7---|------------------------ ||
B |---------------------------|-8^^^^------------------.||
G |--------------(7)/9--------|------------------------ ||
D |---------------------------|------------------------.||
A |---------------------------|------------------------ ||
E |---------------------------|------------------------ ||
  |                                                     |
  |                                                     |
  |                                                     |
  |                   H P                         sl    |
e |------------3--------------|-0---------------------- ||
B |-(0)--3--------------------|-0-----------0--(1)/3---.||
G |--0---------------0-2-0--0-|-0-----------0--(2)/4--- ||
D |---------0-----0-----------|-2-----2----------------.||
A |---------------------------|----------2------------- ||
E |--3------------------------|----0------------------- ||
Comments