Metallica - Fade To Black Chords & Tabs

 

Fade To Black Chords & Tabs

Metallica Chords & Tabs

Version: 8 Type: Tab 2 ratings
1 star 2 stars 3 stars 4 stars 5 stars
comments

Fade To Black Tab

THIS IS MY FIRST TAB. PLEASE RATE> OTHER TABS HAVE THE VERSE PART WHICH JAMES PLAYS =)




---------------------------------------------------------------------
---------------------------------------------------------------------
-----0-------------0-------------0-------------0---------------------
---4---4---4-----2---2---2-----4---4---4-----2---2---2---------------
-2-------2---5-0-------0---5-2-------2---5-4-------4---4--0----------
---------------------------------------------------------------------


----------------------------------------------------------------------------------
-------------7-8-10-8-10-12-10-8-10---12-10-8-7-8-7---7-------------------8-7-8-10
-----7-9--------------------------------------------9---9-7-------7-6-7-6---------
-7-9-----7-9------------------------------------------------7-9-9-----------------
----------------------------------------------------------------------------------
----------------------------------------------------------------------------------


----14-19-14-------14-------------------------------------------------------------17-15-14-14-15h
-15----------15-------15----17-15-14-----------------------------14-15-14-15h-14h----------------
----------------14-------16----------16-14-14-16h----------14-16---------------------------------
--------------------------------------------------14-14-16---------------------------------------
-------------------------------------------------------------------------------------------------
-------------------------------------------------------------------------------------------------

[ Tab from: http://www.guitartabs.cc/tabs/m/metallica/fade_to_black_tab_ver_8.html ]
----------14-15h-------------14-15h----------17-15-14----------------------------------------------
-18-17-15--------18-17-15-----------18-17-15-------------------------------------------------------
--------------------------16-----------------------------------------------------------------------
---------------------------------------------------------------------------------------------------
---------------------------------------------------------------------------------------------------
---------------------------------------------------------------------------------------------------


--------------------------------------------------------------------------------\
-------------------------------------------------------------------------------- \
-5/7-7-7---5/7-7-7/10/9----5-5-5------------------------------------------------  \
-5/7-7-7---5/7-7-7/10/9----5-5-5---0-7-0-5-0-3-0-2/3----------------------------  / Play 2X
-3/5-5-5---3/5-5-5/8/-7----3-3-3------------------------------------------------ /
--------------------------------------------------------------------------------/


-----------------------------------------------------------------------------------\
----------------------------------------------------------------------------------- \
-7/9-9-9----7/9-9-12-11---7-7-7----------------------------------------------------  \
-7/9-9-9----7/9-9-12-11---7-7-7---0-9-0-7-0-5-0-4/5--------------------------------  /Play 2X
-5/7-7-7----5/7-7-10-9----5-5-5---------------------------------------------------- /
-----------------------------------------------------------------------------------/


------------------------------------------------------------------------------------\
------------------------------------------------------------------------------------ \
---------9--------12/11-------7-----------------------------------------------------  \
---------9--------12/11-------7-----------------------------------------------------  /Play 2X
---------7--------10/9--------5--0-9-0-7-0-5-0-4/5---------------------------------- / 
-0-0-0-0---0-0-0-0-----0-0-0-0------------------------------------------------------/


------------------------------------------------------------------------------------\
------------------------------------------------------------------------------------ \
------------------------------------------------------------------------------------  \
---4-2-0-0----------4-2-0-0-----------4-2-0-0----------4-2-0-0----------------------  /Play till
-2---------4-2-0--0---------4-2-0-------------4-2-0--0---------4-2-0---------------- / end and fade
----------------------------------3-------------------------------------------------/  out



Comments