Metallica - Fade To Black Chords & Tabs

 

Fade To Black Chords & Tabs

Metallica Chords & Tabs

Version: 3 Type: Tab 9 ratings
1 star 2 stars 3 stars 4 stars 5 stars
comments

Fade To Black Tab

Band= Metallica

Album= Ride the lighting

Song= Fade to  black 



INTRO RIFF PLAYED BY JAMES HETFIELD 
 
0:08


e-------------------------------------------------------------------------------------
B-------------------------------------------------------------------------------------
G-----0--------------0--------------0------------------2------------------------------
D---4---4--4---4---4---4--4---4---4---4----4----4----2---2---2---2--------------------
A-2------2---5---0------0---5---2-------2-----5----4-------4---0----------------------
E-------------------------------------------------------------------------------------


INTRO SOLO PLAYED BY KIRK HAMMETT

0:13

e----------------------------------------------------------------------------------------------
B-----------7--------7-8s10--8--10--12--10--8--10--(10)--12p10p8s7h8p7----7--7h8--7----7-------
G------7---(7)----------------------------------------------------------9------------9---9--7--
D--s9------------9-----------------------------------------------------------------------------
A----------------------------------------------------------------------------------------------
E----------------------------------------------------------------------------------------------

e-------------------------------------------14--19--14-------15p14-----------------------------
B---------------------8--7--8s10~~~~~~---15------------15----------15----17-15-14--------------
G-----------7s6--7p6--------------------------------------16----------14----------16-14bfull---
D-7--9-(9)s------------------------------------------------------------------------------------
A----------------------------------------------------------------------------------------------
E----------------------------------------------------------------------------------------------
[ Tab from: http://www.guitartabs.cc/tabs/m/metallica/fade_to_black_tab_ver_3.html ]
e----------------------------------------------------------------19-17-15-15-17-14-------------
B--------------------------------------14-15-14h15p14--14h15--14-------------------15----------
G--(14)~~~~-14h16----------------14-16---------------16-------------------------------16~~~~---
D-----------------14~~~---14h16----------------------------------------------------------------
A----------------------------------------------------------------------------------------------
E----------------------------------------------------------------------------------------------

e--14-15-14--------14-15-14---17-15-14~---------------------------------12-13-15-13h15p13------
B-----------15--------------15---------------------------------12-13-15-------------------15---
G--------------14----------------------------------------12-14---------------------------------
D------------------------------------------------12-14-15--------------------------------------
A----------------------------------------12-14-15----------------------------------------------
E----------------------------------------------------------------------------------------------


Okay. This riff was screwed up in all the tabs here so I had to give you a correct version. It's so simple so I dont know why people screwed up.

         pm---|         pm---|                   pm---|         pm---|         pm---|       pm-----| 
E-------------------------------------------------------------------------------------------------------
B-------------------------------------------------------------------------------------------------------
G-2-2-2----------5-5-5----------2-2-2--7--9-9-9----------2-2-2----------5-5-5----------2-2-2------------
D-2-2-2----------5-5-5----------2-2-2--7--9-9-9----------2-2-2----------5-5-5----------2-2-2------------
A-0-0-0-x-x---5--3-3-3-x-x---5--0-0-0--5--7-7-7-x-x-3-2--0-0-0-x-x---5--3-3-3-x-x---5--0-0-0--5-4-2-----
E-------x-x-3----------x-x-3--------------------x-x------------x-x-3----------x-x-3-----------3-2-0-----

Seeing as nobody ever shows any interest in my tabs, if anyone wants the rest of the song, they can e-mail me at yngwie41@hotmail.com anytime.
Good luck.
Fionn
Comments