Metallica - Fade To Black Chords & Tabs

 

Fade To Black Chords & Tabs

Metallica Chords & Tabs

Version: 2 Type: Tab 0 ratings
1 star 2 stars 3 stars 4 stars 5 stars
comments

Fade To Black Tab

#----------------------------------PLEASE NOTE--------------------------------#
#This file is the author's own work and represents their interpretation of the#
#song. You may only use this file for private study, scholarship, or research.#
#-----------------------------------------------------------------------------#
#-- File created with Instab - http://www.pconline.com/~smcarey/instab.html --#
#-----------------------------------------------------------------------------#

Author/Artist: Metallica
Title: fade to black
Album: ride the lightning
Transcribed by: jstorm37
Email: jstorm37@triad.rr.com

Last solo no figured out yet so please forgive me.  it is not 100% but it is pre


tty darn close

------------------------------------------------------------------------------
------------------------------------------------------------------------------
-----0----------------0----------------0---------------2----------------------
---4---4---4---2----4---4---4---2----4---4---4---2---2---2---2---2------------
-2-------2---5----0-------0---5----2-------2---5---4-------4---0--------------
------------------------------------------------------------------------------
    Intro solo                                                                

------------------------------------------------------------------------------
----7---7-8-10-8-10-12-10-8-10-10-12p10p8-7-8-7---7-----------------8-7-8/10--
----7-------------------------------------------9---9-7-----7\6-7\6-----------
-/9---9-------------------------------------------------7/9-------------------
------------------------------------------------------------------------------
------------------------------------------------------------------------------
                                                                              
[ Tab from: http://www.guitartabs.cc/tabs/m/metallica/fade_to_black_tab_ver_2.html ]
----14-19-14-------15-14------------------------------------------------------
-15----------15----------15----17-15-14------------------------------14-15----
----------------16----------14----------16-14v-14h16-----------14-16----------
-----------------------------------------------------14v-14h16----------------
------------------------------------------------------------------------------
------------------------------------------------------------------------------
                                                                              

---------------19-17-15-15-17-14-------14-15-14-------14-15-14----17-15-14----
-14---14-15-14-------------------15-------------15-------------15-------------
---16-------------------------------16-------------14-------------------------
------------------------------------------------------------------------------
------------------------------------------------------------------------------
------------------------------------------------------------------------------
                                                                              

-----------------------------------12-13-15-13h15p13--------------------------
--------------------------12-13-15-------------------15-----------------------
--------------------12-14-----------------------------------------------------
-----------12-14-15-----------------------------------------------------------
--12-14-15--------------------------------------------------------------------
------------------------------------------------------------------------------
      Verse                                                                   

--0--------0-------0-----0-------3-3-----3------------------------------------
--0-h1-1---------0-1-1---------0-0---0-----0-----0-/3-------------------------
--2------2---0h2---0---2---0h2---0-----0-----0---0-/4-------------------------
--2----------------2-------------0-------------0------------------------------
--0----------------3-------------2--------------------------------------------
--0----------------0-------------3--------------------------------------------
      Interlude                                                               

--0-0-0-0-x-x-----0-0-0-0-x-x-----0-0-0-0-0-0-0-0-0-x-x-----------------------
--0-0-0-0-x-x-----0-0-0-0-x-x-----0-0-0-0-0-0-0-0-0-x-x-----------------------
--2-2-2-2-x-x-----5-5-5-5-x-x-----2-2-2-2-7-9-9-9-9-x-x-----------------------
--2-2-2-2-x-x-----5-5-5-5-x-x-----2-2-2-2-7-9-9-9-9-x-x-----------------------
--0-0-0-0-x-x---5-3-3-3-3-x-x---5-0-0-0-0-5-7-7-7-7-x-x-3-2-------------------
--0-0-0-0-x-x-3---0-0-0-0-x-x-3---0-0-0-0-0-0-0-0-0-x-x-----------------------
                                                                repeat        

Comments