Metallica - Fade To Black Chords & Tabs

 

Fade To Black Chords & Tabs

Metallica Chords & Tabs

Version: 12 Type: Tab 0 ratings
1 star 2 stars 3 stars 4 stars 5 stars
comments

Fade To Black Tab

   
By:Haunted
/=slide
h=hamer on
p=pull off
v=vibrato
b=bend
()=trill
pm=palm mute
e|------------------------------------------------
B|------------------------------------------------
G|-------0----------------------0-----------------
D|----4-----4-----4----4-----4-----4-----4-----4--
A|-2-----------2-----5----0-----------0-----5-----
E|------------------------------------------------

e|------------------------------------------------
B|------------------------------------------------
G|-------0-----------------------2----------------
D|----4-----4-----4-----4-----2-----2-----2-----2-
A|-2-----------2-----5-----4-----------4-----2----
E|------------------------------------------------

e|----------------------------------------------------------
B|---------7--8/-10----8--10--12--10--8--10--12p10p8/7h8p7--
G|----------------------------------------------------------
D|-9--------------------------------------------------------
A|----------------------------------------------------------
E|----------------------------------------------------------

e|----------------------------------------------------------
B|----7--7h8--7-----7----------------------------------8--7-
G|-9-------------9-----9--7--------------7/-6-----7p6-------
D|---------------------------7--9-----9---------------------
A|----------------------------------------------------------
E|----------------------------------------------------------

e|---------------14--19-14-------15p14----------------------
B|-8/-10v-----15-----------15----------15----17-15-14-------
G|----------------------------16----------14----------16-14b
D|----------------------------------------------------------
A|----------------------------------------------------------
E|----------------------------------------------------------

e|-------------------------------------------------------19-
B|---------------------------14-15-14h15p14----14h15--14----
G|-14h16--------------14--16----------------16--------------
D|-------14v---14h16----------------------------------------
A|----------------------------------------------------------
E|----------------------------------------------------------

e|-17--15----15--17--14---------14-15--14--------14--15--14-
B|----------------------15v---------------15----------------
G|--------------------------16---------------14-------------
D|----------------------------------------------------------
A|----------------------------------------------------------
E|----------------------------------------------------------

e|-----17----15---14-----------------------------------12-13
B|-15-----------------------------------------12-13-15------
G|--------------------------------------12-14---------------
D|-----------------------------12-14-15---------------------
A|--------------------12-14-15------------------------------
E|----------------------------------------------------------

e|-15--13h15p13------------
B|--------------15---------
G|-------------------------
D|-------------------------
A|-------------------------
E|-------------------------

e|-17-------------------------------------------12---10--
B|-----------0h1------------------------3(15)---------8--
G|-12---------------0-------------4(16)---------------9--
D|--------------------------5(17)------------------------
A|-------------------------------------------------------
E|-------------------------------------------------------
[ Tab from: http://www.guitartabs.cc/tabs/m/metallica/fade_to_black_tab_ver_12.html ]
e|----------0--------------------0---------------------3----
B|-0h1---------------1------1---------------0-----3---------
G|-2---2---------0h2----0--------------0h2-----0------------
D|-2-----2-----2--------2-----2-----2----------------0----0-
A|-0--------------------3-----------------------------------
E|---------------------------------------------3------------

e|-3--3---------------------------------------------
B|---------------0--1/-3----------------------------
G|-2--0--0-------0--2/-4----------------------------
D|----------2---------------------------------------
A|------------2-------------------------------------
E|-------0------------------------------------------

e|-----------------------------------------------3(15)---
B|----1------------------------3(15)-------5(17)---------
G|-2-------0---------------------------------------------
D|-----------------5(17)---------------------------------
A|-------------------------------------------------------
E|-------------------------------------------------------

e|----------0----------------0-----------------3------------
B|-0h1--------------1----1-----------0----3-----------------
G|-2---2--------0h2---0----------0h2----0-----------0h2p0-0-
D|-2-----2----2-------2----2---2-------------0----0---------
A|-0------------------3-------------------------------------
E|--------------------------------------3-------------------

e|-0-----------------------------
B|-0---------0-1/-3--------------
G|-0---------0-2/-4--------------
D|-2----2------------------------
A|--------2----------------------
E|---0---------------------------

e|---------------------------------------------------------
B|---------------------------------------------------------
G|-2--2-2------------5--5-5-----------2--2-2---7---9---9-9-
D|-2--2-2------------5--5-5-----------2--2-2---7---9---9-9-
A|-0--0-0--------5---3--3-3--------5--0--0-0---5---7---7-7-
E|---------0-0-3-------------0-0-3-------------------------
          pm......          pm......    
e|----------------------------------------------------------
B|----------------------------------------------------------
G|------------2--2-2----------5--5-5-----------2--2-2-------
D|------5-5---2--2-2----------5--5-5-----------2--2-2------2
A|------3-2---0--0-0-------5--3--3-3--------5--0--0-0--5-4-2
E|-0-0---------------0-0-3------------0-0-3------------3-2-0
  pm..              pm......         pm......         pm....
e|-------------------------------------------------
B|-------------------------------------------------
G|-7/-9---9-9-----7/-9----9/-12--11-----7----7-7---
D|-7/-9---9-9-----7/-9----9/-12--11-----7----7-7---
A|-5/-7---7-7-----5/-7----7/-10---9-----5----5-5---
E|-------------------------------------------------

e|------------------------------------------------
B|------------------------------------------------
G|--------------------------------4---------------
D|-9-9-9---7-7-7---5-5-5---4-4-4--5----------------
A|-------------------------------------------------
E|------------------------------------------------
  pm....................................
e|----------------------------------------------
B|----------------------------------------------
G|----------9--9----------12--11---------7------
D|----------9--9----------12--11---------7------
A|----------7--7----------10---9---------5------
E|-0-0-0-0--------0-0-0-0--------0-0-0-0--------
  pm......       pm......       pm......
e|----------------------------------------------
B|----------------------------------------------
G|--------------------------------4-------------
D|-9-9-9---7-7-7---5-5-5---4-4-4--5-------------
A|----------------------------------------------
E|----------------------------------------------
  pm................................

Thats pretty much it except for the last solo 
Comments