Metallica - Fade To Black Chords & Tabs

 

Fade To Black Chords & Tabs

Metallica Chords & Tabs

Version: 10 Type: Tab 0 ratings
1 star 2 stars 3 stars 4 stars 5 stars
comments

Fade To Black Tab

Tabbed by: Haunted
\ slide

e|------------------------------------------
B|------------------------------------------
G|-7\--9--9------7\--9\--12--11---7--7--7---
D|-7\--9--9------7\--9\--12--11---7--7--7---
A|-5\--7--7------5\--7\--10--9----5--5--5---
E|------------------------------------------
[ Tab from: http://www.guitartabs.cc/tabs/m/metallica/fade_to_black_tab_ver_10.html ]
e|------------------------------------------
B|------------------------------------------
G|------------------------4--4--------------
D|-9-9-9---7-7-7---5-5-5-----5--------------
A|------------------------------------------
E|------------------------------------------

e|--------------------------------------------
B|--------------------------------------------
G|----------9-9---------12-11---------7-------
D|----------9-9---------12-11---------7-------
A|----------7-7---------10-9----------5-------
E|-0-0-0-0------0-0-0-0-------0-0-0-0---------

e|--------------------------------------
B|--------------------------------------
G|----------------------4--4------------
D|-9-9-9--7-7-7--5-5-5-----5------------
A|--------------------------------------
E|--------------------------------------
Comments