Metallica - Fade To Black (pick This One) Chords & Tabs

 

Fade To Black (pick This One) Chords & Tabs

Metallica Chords & Tabs

Version: 1 Type: Tab 9 ratings
1 star 2 stars 3 stars 4 stars 5 stars
comments

Fade To Black (pick This One) Tab

		FADE TO BLACK
              METALLICA
          RIDE THE LIGHNTING



	
rythem guitar- clean and normal metallica distortion---James
lead guitar- electric with normal metallica distortion with some wah wah--- Kirk

INTERDUCTION: James            repeat this part under the solo 5 times
let ring~~~~~~~~~~~~~~~~~~~~~~~~~~~~~~~let ring~~~~~~~~~~~~~~~~~~~~~~~~~~~~~~~let ring~~~~~~~~~~~~~
[-------------------------------------------------------------------------------------------------]
[-------------------------------------------------------------------------------------------------]
[--------0----------------------0------------------------0------------------------2---------------]
[-----4----4-----4-----4-----4-----4-----4-----4------4-----4-----4-----4------2-----2-----2------]
[--2----------2-----5-----0-----------0-----5------2-----------2-----5------4-----------4-----0---]
[-------------------------------------------------------------------------------------------------]



 Intro Solo: Kirk

                                   continue to next line
[--------------------------------------------------------------------------------------------------]
[--------7-----7--7--8--10--8--10--12--10--8--10--12--10--8--7--8--7-----7--8--7-----7-------------]
[-----7---------------------------------------------------------------9-----------9-----9--7-------]
[--9--------9---------------------------------------------------------------------------------7--9-]
[--------------------------------------------------------------------------------------------------]
[--------------------------------------------------------------------------------------------------]
                                   continue to next line
[---------------------------------------14--19--14----------15--14---------------------------------]
[-----------------8--7--7/8--8/10---15--------------15--------------15------17--15--14-------------]
[-----7--6--7--6----------------------------------------16--------------14--------------16--14~~~--]
[--9-----------------------------------------------------------------------------------------------]
[--------------------------------------------------------------------------------------------------]
[--------------------------------------------------------------------------------------------------]
                                  continue to next line
[-----------------------------------------------------19--17--15--15--17--14----------14h15p14--------]
[-----------------------------14h15p14------14h15p14--------------------------15----------------15----]
[--14h16--------------14--16-----------16-----------------------------------------16----------------14]
[----------14--14h16----------------------------------------------------------------------------------]
[-----------------------------------------------------------------------------------------------------]
[-----------------------------------------------------------------------------------------------------]


[--14h15p14------17--15--14----------------------------------------------12--13--15--13h15p13------17-]
[------------15----------------------------------------------12--13--15------------------------15-----]
[----------------------------------------------------12--14-------------------------------------------]
[----------------------------------------12--14--15---------------------------------------------------]
[----------------------------12--14--15---------------------------------------------------------------]
[-----------------------------------------------------------------------------------------------------]
                            end solo            end solo


	Verse Riff: James
                                         repeat this 7 and a half times
[-----------0----------------------0-------------3--------3----------0--------------------------------]
[-h1-------------------0--1-------------------0--3--------------0h3--0--------0--1/3------------------]
[-2---2-----------0h2-----0--0-----------0h2-----0--0----------------0--0-----0--2/4------------------]
[-2------2-----2----------2-----2-----2----------0-----0-----0-------2-----2--------------------------]
[-0-----------------------3----------------------2-------------------2--------------------------------]
[------------------------------------------------3-------------------0--------------------------------]

      Chourse: Kirk 

[-------------------------------------------------------------------------------------]
[-------------------------------------------------------------------------------------]
[-------------------------------------------------------------------------------------]
[--2----2--2-------------5----5--5--------------2----2--2---7--9---9--9---------------]
[--0----0--0----------5--3----3--3-----------5--0----0--0---5--7---7--7------3-2------]
[-------------0-0--3-----------------0-0--3------------------------------0-0----------]
              ^ ^                    ^ ^ 
            palm mute              palm mute
 
[---------------------------------------------------------------------------]
[---------------------------------------------------------------------------]
[---------------------------------------------------------------------------]repeat the choruse twice
[--2----2--2-------------5----5--5--------------2----2--2-------------------]
[--0----0--0----------5--3----3--3-----------5--0----0--0---5--4--2---------]
[-------------0-0--3-----------------0-0--3-----------------3--2--0---------]
              ^ ^                    ^ ^    
             plam mute             palm mute

   
 
                      Kirk plays this over the verse

[------------------------------------------------------------------------------------------------]
[--10~~~~~~~~10--12--13--13/15--13--12------------------------------------------------------12---]
[----------------------------------------12~~~~~~~12/14--9~~~~~-9/11--11/12--12/14~~~~~~14--11---]
[--------------------------------------------------------9~~~~~-9/11--11/12--12/14~~~~~~14-------]
[------------------------------------------------------------------------------------------------]
[------------------------------------------------------------------------------------------------]
              play the verse under this part twice
              But play the verse 4 times durring the singing
[--------------------------------------------------]
[--13~~~~~~~-15--13--15--15--15--15--15~~~~~~~~~---]
[--12~~~~~~~-14--12--14--14--14--14--14~~~~~~~~~---]
[--------------------------------------------------]
[--------------------------------------------------]
[--------------------------------------------------]

 Play the Chourse agin
 then play this part
 :kirk all by himself the 1st 2 times then james comes in
[----------------------------------------------------------------------------]
[----------------------------------------------------------------------------]
[---------------------------------------------------------------4------------]
[--7/9-9--9--7/9--9--12/11--7--7--7--9-9-9--7-7-7--5-5-5-4-4-4---------------]play this 8 times
[--5/7-7--7--5/7--7--10/9---5--5--5------------------------------------------]
[----------------------------------------------------------------------------]
 
  james plays this at 3:06 and at 2:58

[-----]
[-----]
[-----]
[-----]
[--2--]
[--0--]
 
[ Tab from: http://www.guitartabs.cc/tabs/m/metallica/fade_to_black_pick_this_one_tab.html ]
then kirk and james play this twice
[--------------------------------------------------------------------------------------]
[--------------------------------------------------------------------------------------]
[-----------------------------------------------------------------------------------4--]
[--------------7--7--------------12/10-------------7----9-9-9--7-7-7--5-5-5--4-4-4-----]x2
[--------------5--5--------------10/9--------------5-----------------------------------]
[--0--0--0--0--------0--0--0--0--------0--0--0--0--------------------------------------]
   ^  ^  ^  ^        ^  ^  ^  ^        ^  ^  ^  ^
  palm mute           palm mute        palm mute

 
  James Plays this part by himself with with out the solo once then under the solo until 
  the song finishes.
[----------------------------------------------------------------------------------------------------]
[----------------------------------------------------------------------------------------------------]
[----------------------------------------------------------------------------------------------------]
[-----4--2--0-----------------4--2--0------------------4--2--0-------------------4--2--0-------------]
[--2-----------4--2--0-----0-----------4--2--0------------------4--2--0-------0-----------4--2--0----]
[-----------------------3-----------------------3--3----------------------3-------------------------3]


 SOLO: KIRK

|--------------------------------------------|-----------------------------------------------|
|--------------------------------------------|-----------------------------------------------|
|--------------------------------------------|---11H12-11---11H12-11---11H12-11---12H14-12---|
|----------12-14B16--14B16-14B16-14H16P12-14-|-14---------12---------12---------12-----------|
|-14-14-14-----------------------------------|-----------------------------------------------|
|--------------------------------------------|-----------------------------------------------|

|----------------------------------------|-------------------------------|
|----------------------------------------|-------------------------------|
|-14-16-12-12H14-12-11-12-11----11-------|----------7-9-9B11R9--9-7---7-9|
|----------------------------14----14-12-|-7-9-9--9-----------------9----|
|----------------------------------------|-------------------------------|
|----------------------------------------|-------------------------------|

|----7-----------------------------------------------------------------------|
|---7---10P7---7-10P7---7-10P7---7-10P7---7-10P7---7-10P7---7-10P7---7-10P7--|
|--9---------9--------9--------9--------9--------9--------9--------9---------|
|----------------------------------------------------------------------------|
|----------------------------------------------------------------------------|
|----------------------------------------------------------------------------|

[-10P7---10P7---10P7---10P7---10P7---10P7---10P7---10P7---|
[-----10-----10-----10-----10-----10-----10-----10-----10-|
[---------------------------------------------------------|
[---------------------------------------------------------|
[---------------------------------------------------------|
[---------------------------------------------------------|

[-10B12-10B12--10-8-7-8-7--7------------------------|
[------------------------10-10-8-10-8--8------------|
[------------------------------------11-11-9-11-9-7-|
[---------------------------------------------------|
[---------------------------------------------------|
[---------------------------------------------------|

[-------------------------------------------------------------|
[-------7H8P7--7-8-10-8-7-------------7H9P7--7-8-10-12-13-12--|
[-7-9-9------9------------9-7--------------9------------------|
[-------------------------------7-9-9-------------------------|
[-------------------------------------------------------------|
[-------------------------------------------------------------|

[---------------------------------------------------------------------|
[-13-15-13-12-13-12--12-----------------------------------------------|
[------------------14--14-12-14-12-11-12-11--11-----------------------|
[------------------------------------------14--14-12-14-12-11-12-11---|
[------------------------------------------------------------------14-|
[---------------------------------------------------------------------|

[--------------------------------------------------------------|
[--------------------------------------------------------------|
[---------9-11-12-14-16-12-14-12-14-16-14-12-11-12-11--11------|
[-9-11-12--------------------------------------------14--14-12-|
[--------------------------------------------------------------|
[--------------------------------------------------------------|
                           
[----------------------------------------------|
[----------------------------------------------|
[-9B11-9B11-9B11-9B11-9B11-(11)-(11)-(11)-(11)-|
[----------------------------------------------|
[----------------------------------------------|
[-----------------------------------------------

[--------------------------------------------------------------------------------|
[-7-7-7-7--7-7-7-7--7-7-7-7--10B12-10B12-10B12--10-8-7H9P7---7-8-7---7H9P7-------|
[-7-7-7-7--7-7-7-7--7-7-7-7--------------------------------9-------9-------9-7---|
[--------------------------------------------------------------------------------|
[--------------------------------------------------------------------------------|
[--------------------------------------------------------------------------------|

[------------------------15P12---12-15P12---12-15P12---12-15P12---12-15P12---12-15P12---12-15P12----|
[-----------------------------15---------15---------15---------15---------15---------15----------15-|
[-9-7--7--------------------------------------------------------------------------------------------|
[----9--9-7-9-7-7-----------------------------------------------------------------------------------|
[--------------9--9-7-5-----------------------------------------------------------------------------|
[----------------------7----------------------------------------------------------------------------|

[-17P14---14-17P14---14-17P14---14-17P14---14-17P14---14-17P14---14-17P14----|
[------15---------15---------15---------15---------15---------15---------15--|
[----------------------------------------------------------------------------|
[----------------------------------------------------------------------------|
[----------------------------------------------------------------------------|
[----------------------------------------------------------------------------|

[-19P15---15-19P15---15-19P15---15-19P15---15-19P15---15-19P15---15-19P15----|
[------17---------17---------17---------17---------17---------17---------17--|
[----------------------------------------------------------------------------|
[----------------------------------------------------------------------------|
[----------------------------------------------------------------------------|
[----------------------------------------------------------------------------|

[-21P17---17-21P17---17-21P17---17-21P17---17-21P17---17-21P17---17-21P17----|
[------19---------19---------19---------19---------19---------19---------19--|
[----------------------------------------------------------------------------|
[----------------------------------------------------------------------------|
[----------------------------------------------------------------------------|
[----------------------------------------------------------------------------|

Comments