Metallica - Fade To Black Chords & Tabs

 

Fade To Black Chords & Tabs

Metallica Chords & Tabs

Version: 1 Type: Bass Tab 2 ratings
1 star 2 stars 3 stars 4 stars 5 stars
comments

Fade To Black Bass Tab

Song: Fade To Black
Band: MetallicA
Album: Ride the Lightning

Transcribed By Eros Fratini (e-r-o-s@libero.it) 
Normal Tune
------------------------------ Bass Tab -------------------------------
Time 4/4
beat 116	

Intro:
:----|----|----|-----------------|-----------------|----|----|
:----|----|----|-----------------|-----------------|----|----|
:----|----|----|-----------------|-----------------|----|----|
:----|----|----|---------------5-|-7---------------|----|----|

|----------------|-----------------|----------------|-----------------|
|----------------|-----------------|----------------|-----------------|
|----------------|-----------------|--------------5-|-----------------|
|--------------5-|-7---------------|----------------|-7---------------|

|-----------------|-----------------|----|----|
|-----------------|-----------------|----|----|
|-----------------|-----------------|----|----|
|---------------5-|-7---------------|----|----|

|-----------------|-----------------|----|----|----|
|-----------------|-----------------|----|----|----|
|-----------------|-----------------|----|----|----|
|---------------5-|-7---------------|----|----|----|

|--------------------------------|--------------------------------|
|--------------------------------|--------------------------------|
|--------------------------------|-2-----------2------------------|
|-1-----------1---4-----------4--|-----------------0--------------|

|--------------------------------|----|----|
|--------------------------------|----|----|
|-0------------------------------|----|----|
|--------------------------------|----|----|

|--------------------------------|
|--------------------------------|
|--------------------------------|
|-----------------3-----/----7---|

|--------------------------------|----|----|----|
|--------------------------------|----|----|----|
|-0------------------------------|----|----|----|
|--------------------------------|----|----|----|

(Drum Enter)
|--------------------------------|--------------------------------|
|--------------------------------|--------------------------------|
|-0-----------------------0---2--|-3-----------------------3---2--|
|--------------------------------|--------------------------------|

|--------------------------------|--------------------------------|
|--------------------------------|--------------------------------|
|-------------------------3---2--|-----------------2---/---7---\--|
|-3------------------------------|-0------------------------------|

|--------------------------------|--------------------------------|
|--------------------------------|--------------------------------|
|-0-----------------------0---2--|-3---------------------------5--|
|--------------------------------|------------------------5/7-----|

|--------------------------------|--------------------------------:
|--------------------------------|--------------------------------:
|--------------------------------|-----------------7-------\------:
|-3-----------------------5---3--|-0---------------------------0--:

Verse 1:
:--------------------------------|--------------------------------|
:--------------------------------|--------------------------------|
:-0-----------------------0---2--|-3-----------3---3-----2h3---2--|
:--------------------------------|--------------------------------|

|--------------------------------|--------------------------------|
|--------------------------------|--------------------------------|
|--------------------------------|---------------------5---7------|
|-3-----------------------5---3--|-0-------0---0-/-7--------------|

|--------------------------------|--------------------------------|
|--------------------------------|--------------------------------|
|-0-----------------------0---2--|-3---------------------------5--|
|--------------------------------|------------------------5/7-----|

|--------------------------------|--------------------------------|
|--------------------------------|--------------------------------|
|--------------------------------|--------------------------------|
|-3-----------------------5---3--|-0---------------3-----/----7---|

|--------------------------------|--------------------------------|
|--------------------------------|--------------------------------|
|-0-----------------------0---2--|-3-----------3---3-----2h3---2--|
|--------------------------------|--------------------------------|

|--------------------------------|--------------------------------|
|--------------------------------|--------------------------------|
|-------------------------3---2--|-----------------7-------7------|
|-3------------------------------|-0------------------------------|

|--------------------------------|--------------------------------|
|--------------------------------|-----------------------5h7p5----|
|-0-----------------------0---2--|-3-----------------/-7-------7--|
|--------------------------------|--------------------------------|

|--------------------------------|--------------------------------:
|-5-----------------------5h7-5--|--------------------------------:
|---------------------5h7--------|-7---7---7---7---7---7---7---7--:
|--------------------------------|--------------------------------:

Chorus:
|Fig.1
:--------------------------------|--------------------------------|
:*-------------------------------|--------------------------------|
:*----------------------------5--|-3-----------3---3-----------5--|
:-5-----------5---5---0-0-3------|---------------------0-0-3------|

|--------------------------------|--------------------------------|
|--------------------------------|--------------------------------|
|-------------------------5------|-7------------------------------|
|-5-----------5---5--------------|-------------0---0---0-0-8---7--|

|--------------------------------|--------------------------------|
|--------------------------------|--------------------------------|
|-----------------------------5--|-3-----------3---3-----------5--|
|-5-----------5---5---0-0-3------|---------------------0-0-3------|

                                                         end Fig.1|
|--------------------------------|--------------------------------:
|--------------------------------|-------------------------------*:
|--------------------------------|-------------------------------*:
|-5-----------5---5-------3---2--|-0------------------------------:

Interlude:
:--------------------------------|--------------------------------|
:--------------------------------|--------------------------------|
:-0-----------------------0---2--|-3---------------------------5--|
:--------------------------------|------------------------5/7-----|

|--------------------------------|--------------------------------|
|--------------------------------|--------------------------------|
|--------------------------------|-----------------------/-7-\----|
|-3-----------------------5---3--|-0------------------------------|

|--------------------------------|--------------------------------|
|--------------------------------|--------------------------------|
|-0-----------------------0---2--|-3-------3-------3--------0-3-5-|
|--------------------------------|--------------------------------|

|--------------------------------|--------------------------------:
|--------------------------------|--------------------------------:
|--------------------------------|--------------------------------:
|-3-------3-------3-------5---3--|-0---------------------/-7------:
[ Tab from: http://www.guitartabs.cc/tabs/m/metallica/fade_to_black_btab.html ]
Verse 2:
:--------------------------------|--------------------------------|
:--------------------------------|--------------------------------|
:-0-----------0---0-------0-3h5--|-3-----------3---3-------5------|
:--------------------------------|-----------------------------7--|

|--------------------------------|--------------------------------|
|--------------------------------|--------------------------------|
|--------------------------------|-------------------------2---/--|
|-3---------------5-----------3--|-0-----------0---0--------------|

|--------------------------------|--------------------------------|
|--------------------------------|--------------------------------|
|-0-----------------------0---2--|-3-----------------------3---5--|
|--------------------------------|--------------------------------|

|--------------------------------|--------------------------------|
|--------------------------------|--------------------------------|
|--------------------------------|--------------------------------|
|-3-------3-----------3---5---3--|-0---------------0-------5/7----|

|--------------------------------|--------------------------------|
|--------------------------------|--------------------------------|
|-0---------------0-------0---2--|-3-----------3---3-----2h3---2--|
|--------------------------------|--------------------------------|

|--------------------------------|--------------------------------|
|--------------------------------|--------------------------------|
|--------------------------------|---------7-------7--------------|
|-3-----------3---3-------5---3--|-0-----------0-----------5/7----|

|--------------------------------|--------------------------------|
|--------------------------------|------------------------5h7p5---|
|-0---------------0-------0---2--|-3-----------3---3---5h7-----7--|
|--------------------------------|--------------------------------|

|--------------------------------|--------------------------------:
|-5----------------------5h7p5---|--------------------------------:
|--------------------------------|-7---7---7---7---7---7---7---7--:
|--------------------------------|--------------------------------:

Chorus:

Repeat Fig.1 (x2) then

|--------------------------------|--------------------------------|
|--------------------------------|--------------------------------|
|--------------------------------|--------------------------------|
|(0)-----------------------------|(0)-----------------------------|

|--------------------------------|--------------------------------|
|--------------------------------|--------------------------------|
|--------------------------------|--------------------------------|
|(0)-----------------------------|-0------------------------------|

|--------------------------------|--------------------------------|
|--------------------------------|-----------------------------9-9|
|--------------------------------|--------------------------------|
|(0)-----------------------------|(0)-----------------------------|

|--------------------------------:
|-9---7-7-7---5-5-5---4-4-4---5--:
|--------------------------------:
|--------------------------------:

Bridge:
|Fig. 2
:--------------------------------|--------------------------------|
:--------------------------------|-----------------5---4/12-------|
:-5---7-----------7--------------|-5---7--------------------------|
:---------0---0-----------0---0--|---------0---0------------------|

|--------------------------------|-----------------------------4--|
|-----------------------------9-9|-9---7-7-7---5-5-5---4-4-4------|
|-----5-------5---5--------------|--------------------------------|
|--------------------------------|--------------------------------|

|--------------------------------|--------------------------------|
|--------------------------------|-----------------5---4/12-------|
|-5---7-----------7--------------|-5---7--------------------------|
|---------0---0-----------0---0--|---------0---0------------------|
   
                                                         end Fig.2| 
|--------------------------------|--------------------------------|
|-----------------------------9-9|-9---7-7-7---5-5-5---4-4-4---5--|
|-----5-------5---5--------------|--------------------------------|
|--------------------------------|--------------------------------|

Repeat Fig.2 x 2

|--------------------------------|--------------------------------|
|--------------------------------|--------------------------------|
|-----------------7--------------|--------------------------------|
|-0---0---0---0------------------|-0---0---0---0---3---2----------|

|--------------------------------|-----------------------------4--|
|-----------------------------9-9|-9---7-7-7---5-5-5---4-4-4------|
|-----------------5--------------|--------------------------------|
|-0---0---0---0------------------|--------------------------------|

|--------------------------------|--------------------------------|
|--------------------------------|--------------------------------|
|-----------------7--------------|--------------------------------|
|-0---0---0---0------------------|-0---0---0---0---3---2----------|

|--------------------------------|--------------------------------|
|-----------------------------9-9|-9---7-7-7---5-5-5---4-4-4---5--|
|-----------------5--------------|--------------------------------|
|-0---0---0---0------------------|--------------------------------|

|--------------------------------|--------------------------------|
|*-------------------------------|--------------------------------|
|*2-----------2-----------2------|(2)--2-----------4---2---0------|
|--------------------------------|-----------------------------2--|

|--------------------------------|--------------------------------|
|--------------------------------|--------------------------------|
|-0-----------0-----------0------|(0)--0-----------0---0---0---0--|
|--------------------------------|--------------------------------|

|--------------------------------|--------------------------------|
|--------------------------------|--------------------------------|
|--------------------------------|--------------------------------|
|-3-----------3-----------3---3--|(3)--3---3---3---3---3---3---3--|

|--------------------------------|--------------------------------|
|--------------------------------|-------------------------2---2-*|
|-0-----------0-----------0------|-0---0-----------0---0---------*|
|--------------------------------|--------------------------------|

|--------------------------------|--------------------------------|
|*-------------------------------|--------------------------------|
|*2-------2---2-------2---2------|-2---2-------2---4---2---0------|
|--------------------------------|-----------------------------2--|

|--------------------------------|--------------------------------|
|--------------------------------|--------------------------------|
|-0---0---0---0-----------0---0--|-0---0-------0---0---0---0---0--|
|--------------------------------|--------------------------------|

|--------------------------------|--------------------------------|
|--------------------------------|--------------------------------|
|--------------------------------|--------------------------------|
|-3---3---3---3-----------3---3--|-3---3-----------3---3---3---3--|

|--------------------------------|--------------------------------|
|--------------------------------|-------------------------2---2-*|
|-0-----------0-----------0---0--|-0---0-----------0---0---------*|
|--------------------------------|--------------------------------|

-----------------------------------------------------------------------


Comments