Metallica - Fade To Black Acoustic Chords & Tabs

 

Fade To Black Acoustic Chords & Tabs

Metallica Chords & Tabs

Version: 2 Type: Tab 0 ratings
1 star 2 stars 3 stars 4 stars 5 stars
comments

Fade To Black Acoustic Tab

song: fade to black
band: metallica
tabbed by jeff h.(y2jc_28@yahoo.com or thegreatone@youareadork.com)
             hey, this only a part of the song. Enjoy!
e-0-----------0---------0-------0---------3---------3---3-3---|
b-0---0h1-----------0---1---1---------0---0---0---------0-0---|
g-2-------2-----0h2-----0-----0---0h2-----0-----0-------0-0---|
d-2---------2-----------2-----------------0-------0-----0-0---|
a-0---------------------3-----------------2-------------2-2---|
e-0---------------------0-----------------3-------------3-3---|

e-0-0------------------|
b-0-0---0-1/3----------|
g-0-0---0-2/4-2--------|
d-2-2---------2--------|
a-2-2------------------|
e-0-0------------------|
that's all.
[ Tab from: http://www.guitartabs.cc/tabs/m/metallica/fade_to_black_acoustic_tab_ver_2.html ]
Comments