Metallica - Eye Of The Beholder Chords & Tabs

 

Eye Of The Beholder Chords & Tabs

Metallica Chords & Tabs

Version: 6 Type: Tab 0 ratings
1 star 2 stars 3 stars 4 stars 5 stars
comments

Eye Of The Beholder Tab

this intro is correct listen to the CD.          (pm)  
 e--------------------------------------------------------- 
 b---------------------------------------------------------
 g---------------------------------------------------------
 d-2-2-2-2--2-2--2-2-2---2-2-2-2--5-5--5-5-5---------------
 a-2-2-2-2--2-2--2-2-2---2-2-2-2--5-5--5-5-5---------------
 E-0-0-0-0--0-0--0-0-0---0-0-0-0--3-3--3-3-3--------------- 

 e---------------------------------------------------------
 b---------------------------------------------------------
 g---------------------------------------------------------
 d-4-4-4-4--4-4--4-4-4---2-2-2---2--2--2-------------------
 a-4-4-4-4--4-4--4-4-4---2-2-2---2--2--2-------------------
 E-2-2-2-2--2-2--2-2-2---0-0-0---0--0--0-------------------
[ Tab from: http://www.guitartabs.cc/tabs/m/metallica/eye_of_the_beholder_tab_ver_6.html ]
 e---------------------------------------------------------
 b---------------------------------------------------------
 g-----------------10-10-9--------------------------------- 
 d-2-2-2-2---2-2---10-10-9---2-2-2-2--2-2---h7p8--------2--
 a-2-2-2-2---2-2---8--8--7---2-2-2-2--2-2---h7p8--------2--
 E-0-0-0-0---0-0-------------0-0-0-0--0-0---h7p8--0--1--0--

 e---------------------------------------------------------
 b---------------------------------------------------------
 g-9-9-10-7-7/8--------------------------------------------
 d-9-9-10-7-7/8---2---3-3---2---5---5-5---2----------------
 a-7-7-8--5-5/6---2---3-3---2---5---5-5---2----------------
 E----------------0---1-1---0---3---3-3---0----------------

 e---------------------------------------------------------
 b---------------------------------------------------------
 g---------------------------------------------------------
 d-5---5-5---5---777--666--777--666--555--666--------------
 a-5---5-5---5---777--666--777--666--555--666--------------
 E-3---3-3---3---555--444--555--444--333--444--------------

 e---------------------------------------------------------
 b---------------------------------------------------------
 g---------------------------------------------------------
 d-4---5-4---5----4----5----4---7---2-2--2-2--2------------
 a-4---5-4---5----4----5----4---7---2-2--2-2--2------------
 E-2---3-2---3----2----3----2---5---0-0--0-0--0------------
  [   2x       ][    4x ]
Comments