Metallica - Eye Of The Beholder Chords & Tabs

 

Eye Of The Beholder Chords & Tabs

Metallica Chords & Tabs

Version: 4 Type: Bass Tab 0 ratings
1 star 2 stars 3 stars 4 stars 5 stars
comments

Eye Of The Beholder Bass Tab

   
-----------------------------------------------------------------------------
			     Eye Of The Beholder - Metallica
				  And Justice For All
-----------------------------------------------------------------------------

Tabbed By : Nick Prosper
Location: Corner Brook, Newfoundland Canada
E-mail: nick_prosper@nf.sympatico.ca
MSN: newfie_bassist@hotmail.com
AGE: 21

Tabbed: December 20, 2004

Submitted to http://www.ultimate-guitar.com Dec 20, 2004
Equipment: Schecter Diamond Series 5 String Elite Bass w/EMG-HZ Active Pickups. 1 X 15"
Peavey Cab, 2 X 10" Peavey Cab, Peavey Classic series 120/120 Power Amp. Trace Elliot
GP12-SMX 12 Band Graphic EQ Pre- mplification System.

This is the Eye Of The Beholder bass tab which is off the And Justice For All album. I
play this song with a pick as I do with every MetallicA song. This tab may not be
exactly how it is played from a book you may buy for Metallica bass tabs. But this
is how I play it. I have a progressive style so have fun!

If you would like to have the sound files which I recorded for this song which is only
bass, please feel free to email me.

If You have any suggestions/changes or coments, please feel free email them on as well.

Tuning : Standard

[FADE IN}
G|---------------------------------------------------------------------|
D|---------------------------------------------------------------------|
A|----------------7----------------7----------------7----------------7-|
E|-0000-0000-00-000-0000-0000-00-000-0000-0000-00-000-0000-0000-00-000-|

G|---------------------------------------------------------------------|
D|---------------------------------------------------------------------|
A|----------------7----------------7----------------7----------------7-|
E|-0000-0000-00-000-0000-0000-00-000-0000-0000-00-000-0000-0000-00-000-|

G|-------------------------------------------------------------------|
D|-------------------------------------------------------------------|
A|-------------------------------------------------------------------|
E|-0000-0000-33-333-2222-2222-22-22-0000-0000-33-333-2222-2222-22-22-|

G|-------------------------------------------------------------------|
D|-------------------------------------------------------------------|
A|-------------------------------------------------------------------|
E|-0000-0000-33-333-2222-2222-22-22-0000-0000-33-333-2222-2222-22-22-|

G|---------------------------------------------------------------------|
D|---------------------------------------------------------------------|
A|---------------------------------------------------------------------|
E|-000-0-0-0-00-000-000-0-0-0-00-000-000-0-0-0-00-000-000-0-0-0-00-000-|

G|---------------------------------------------------------------|
D|---------------------------------------------------8h9p8-------|
A|---------------------------------------------------------7h8p7-|
E|-000-0-0-77-66-000-0-0-77-66-000-0-0-77-66-000-0-0-------------|


G|---------------------------------------------------|
D|---------------------------------------------------|
A|---------------------------------------------------|
E|-000-0-0-77-66-000-0-0-77-66-000-0-0-77-66-000-0-0-|

G|--------------------------------------|
D|-8h9p8--------------------------------|
A|-------7h8p7--------------------------|
E|-------------6h7p6-2h3p2-0--RING-----0|

G|---------------------------------------------------------------------|
D|---------------------------------------------------------------------|
A|---------------------------------------------------------------------|
E|-0000-0000-33-333-2222-2222-22-222-0000-0000-33-333-2222-2222-22-222-|

G|---------------------------------------------------------------------|
D|---------------------------------------------------------------------|
A|---------------------------------------------------------------------|
E|-0000-0000-33-333-2222-2222-22-222-0000-0000-33-333-2222-2222-22-222-|

G|-----------------------------------|
D|-----------------------------------|
A|----------------7----------------7-|
E|-0000-0000-00-000-0000-0000-00-000-|

G|---------------------------------------------------------------------|
D|---------------------------------------------------------------------|
A|---------------------------------------------------------------------|
E|-0000-0000-33-333-2222-2222-22-222-0000-0000-33-333-2222-2222-22-222-|


G|-----------------------------------------------------------|
D|-----------------------------------------------------------|
A|-----------------------------------------------------------|
E|-0000-0000-33-333-2222-2222-22-222-0000-0000-33-333-2-RING-|

G|------------------------------------------------------------------|
D|------------------------------------------------------------------|
A|--7-7-8-5-5/6--7-7-8-5-5/6--7-7-8-5-5/6--7-7-8-5-5/6--7-7-8-5-5/6-|
E|-0-0-0-0-0----0-0-0-0-0----0-0-0-0-0----0-0-0-0-0----0-0-0-0-0----|

G|----------------------------------------------------|
D|----------------------------------------------------|
A|----------------------------------------------------|
E|-0-000-0--3-000-0--3-333-3--555-333-555-333-222-333-|

G|---------------------------------------------------------------------|
D|---------------------------------------------------------------------|
A|---------------------------------------------------------------------|
E|-2-3-2-3-2-3-2-3-2-3-2-3-2--3--2-3-2-3-2-3-2-3-2--3--2-3-2-3-2-3-2-3-|

G|----------------------|
D|----------------------|
A|----------------------|
E|-2--2-5--5-0--0-000-0-|

G|---------------------------------------------------|
D|---------------------------------------------------|
A|---------------------------------------------------|
E|-000-0-0-77-66-000-0-0-77-66-000-0-0-77-66-000-0-0-|

G|--------------------------------------|
D|-8h9p8--------------------------------|
A|-------7h8p7--------------------------|
E|-------------6h7p6-2h3p2-0--RING-----0|

[ Tab from: http://www.guitartabs.cc/tabs/m/metallica/eye_of_the_beholder_btab_ver_4.html ]
G|---------------------------------------------------------------------|
D|---------------------------------------------------------------------|
A|---------------------------------------------------------------------|
E|-0000-0000-33-333-2222-2222-22-222-0000-0000-33-333-2222-2222-22-222-|

G|---------------------------------------------------------------------|
D|---------------------------------------------------------------------|
A|---------------------------------------------------------------------|
E|-0000-0000-33-333-2222-2222-22-222-0000-0000-33-333-2222-2222-22-222-|

G|-----------------------------------|
D|-----------------------------------|
A|----------------7----------------7-|
E|-0000-0000-00-000-0000-0000-00-000-|

G|---------------------------------------------------------------------|
D|---------------------------------------------------------------------|
A|---------------------------------------------------------------------|
E|-0000-0000-33-333-2222-2222-22-222-0000-0000-33-333-2222-2222-22-222-|


G|-----------------------------------------------------------|
D|-----------------------------------------------------------|
A|-----------------------------------------------------------|
E|-0000-0000-33-333-2222-2222-22-222-0000-0000-33-333-2-RING-|

G|------------------------------------------------------------------|
D|------------------------------------------------------------------|
A|--7-7-8-5-5/6--7-7-8-5-5/6--7-7-8-5-5/6--7-7-8-5-5/6--7-7-8-5-5/6-|
E|-0-0-0-0-0----0-0-0-0-0----0-0-0-0-0----0-0-0-0-0----0-0-0-0-0----|

G|-------------------------------------------|
D|-------------------------------------------|
A|-------------------------------------------|
E|-0-000-0--3-000-0--555-333-555-333-222-333-|

G|---------------------------------------------------------------------|
D|---------------------------------------------------------------------|
A|---------------------------------------------------------------------|
E|-2-3-2-3-2-3-2-3-2-3-2-3-2--3--2-3-2-3-2-3-2-3-2--3--2-3-2-3-2-3-2-3-|

G|----------------------|
D|----------------------|
A|----------------------|
E|-2--2-5--5-0--0-000-0-|

G|-----------------------------------------------------|
D|-----------------------------------------------------|
A|-----------------------------------------------------|
E|-000-0-0-77-66-000-0-0-77-66-000-0-0-77-66-000-0-0---|

G|--------------------------------------|
D|-8h9p8--------------------------------|
A|-------7h8p7--------------------------|
E|-------------6h7p6-2h3p2-0--RING-----0|

G|-------------------------------------------------------------|
D|-------------------------------------------------------------|
A|-------------------------------------------------------------|
E|-0000-88-6-7-0000-77-6-7-0000-88-6-7-0000-77-6-7-0000-88-6-7-|

G|---------------------------------------|
D|----------5------------------------5---|
A|--------5---5--------------------5---5-|
E|-0000-7-------0000-88-6-7-0000-7-------|

G|----------------------------------------------------------|
D|-------------------------5----------------------------5---|
A|------10-10-8-9--------5---5------10-10-8-9---------5---5-|
E|-7777-----------7777-7-------7777-----------7777--7-------|

G|---------------------------------------------|
D|-------------------3---------------------3---|
A|-5555-5-555-55---3---3-5555-5-555-55---3---3-|
E|---------------5---------------------5-------|

G|------------------------------------------------|
D|--------------------3-----------------------3---|
A|-0000-0-000-00----3---3--0000-0-000-00----3---3-|
E|----------------3-----------------------3-------|

G|---------------------------------------------|
D|-------------------3---------------------3---|
A|-5555-5-555-55---3---3-5555-5-555-55---3---3-|
E|---------------5---------------------5-------|

G|--------------------------------------------------------------|
D|--------------------------------------------------------------|
A|---------------------------------555-333-222-333--55-33-22-33-|
E|-777-555-444-555-777-555-444-555------------------------------|

G|-------------------------------------------------------------|
D|-------------------------------------------------------------|
A|-------------------------------------------------------------|
E|-2-3-2-3-2-3-2-3-2-3-2-3-2-3-2-3-2-3-2-3-2-3-2-3-2-3-2-3-2-3-|

G|---------------------------------------------------------------------|
D|---------------------------------------------------------------------|
A|---------------------------------------------------------------------|
E|-0000-0000-33-333-2222-2222-22-222-0000-0000-33-333-2222-2222-22-222-|

G|-----------------------------------------------------------|
D|-----------------------------------------------------------|
A|-----------------------------------------------------------|
E|-0000-0000-33-333-2222-2222-22-222-0000-0000-33-333-2-RING-|

G|-----------------------------------------------------|
D|-----------------------------------------------------|
A|--7-7-8-5-5/6--7-7-8-5-5/6--7-7-8-5-5/6--7-7-8-5-5/6-|
E|-0-0-0-0-0----0-0-0-0-0----0-0-0-0-0----0-0-0-0-0----|

G|--------------------------------------------|
D|--------------------------------------------|
A|--------------------------------------------|
E|-0-000-0--3-000-0---555-333-555-333-222-333-|

G|---------------------------------------------------------------------|
D|---------------------------------------------------------------------|
A|---------------------------------------------------------------------|
E|-2-3-2-3-2-3-2-3-2-3-2-3-2--3--2-3-2-3-2-3-2-3-2--3--2-3-2-3-2-3-2-3-|

G|----------------------|
D|----------------------|
A|----------------------|
E|-2--2-5--5-0--0-000-0-|

G|-----------------------------------------------------|
D|-----------------------------------------------------|
A|--7-7-8-5-5/6--7-7-8-5-5/6--7-7-8-5-5/6--7-7-8-5-5/6-|
E|-0-0-0-0-0----0-0-0-0-0----0-0-0-0-0----0-0-0-0-0----|

G|--------------------------------------------------------|
D|--------------------------------------------------------|
A|-------7----7-7-8-5-5/6--7-7-8-5-5/6--------------------|
E|-0-000-0---0-0-0-0-0----0-0-0-0-0-----0-000-0---REST--0-|

G|----------------|
D|----------------|
A|--------------7-|
E|-3-000000000--0-|

| /  slide up
| \  slide down
| h  hammer-on
| p  pull-off
| ~  vibrato
| +  harmonic
| x  Mute note
=============================================================================
	~The Metal Mesiah~
	MSN Messenger: newfie_bassist@hotmail.com
Comments