Metallica - Enter Sandman Chords & Tabs

 

Enter Sandman Chords & Tabs

Metallica Chords & Tabs

Version: 15 Type: Tab 0 ratings
1 star 2 stars 3 stars 4 stars 5 stars
comments

Enter Sandman Tab

This is a easy song to play. playing with the Cd will help with the timeing.the is my 
frist tab i have ever done so tell me how it is.

Tab Legend
    b =bend half step
    B =bend full step
|-5-|
|-7B| =unison bend
    ~ =vibrato
    / =slide up
    \ =slide down
    h =hammer on
    p =pull off
    # =harmonic
  ... =palm mute
    x =muffled strings
   |%|=repeat
   (1)=guitar 1
   (2)=guitar 2

the song is in normal tuning

{intro}
|--------------------------fig.1-------------------------

play12X                              w/wah    
(1)                                  (2)
|1|---|--------------------|         |1|----0----| |
|2|---|--------------------|         |2|----0----| |
|3|---|--------------------|         |3|----0----| |
|4|---|-----5--------------|         |4|----2----|%|
|5|---|--7-----------7-----|         |5|---------| |
|6|-0-|--------6--5-----0--|         |6|---------| |


                        
(1)                     play4X               (2)
|1|---------------------|------------------| |1|---|-------|
|2|---------------------|------------------| |2|---|-------|
|3|---------------------|------------------| |3|---|-2-2---|
|4|-----5---------------|------------------| |4|---|-2-2---|
|5|--7-----------7--2---|--------------/7--| |5|-2-|-0-0-2-|
|6|--------6--5-----0---|--0-0-0-0-0-0-----| |6|-0-|-----0-|
                           ...........

play4X                          play8X
(1)                             (1)
|1|----------------------|      |1|--------------------|  
|2|----------------------|      |2|--------------------|  
|3|----------------------|      |3|--------------------|   
|4|----------------------|      |4|--------------------|  
|5|------/7-----------3--|      |5|------/7---------3--|  
|6|--0-0----6-0-0-0-0-1--|      |6|--0-0----6-5-0-0-1--|  
     ...      .......                ...        ...





-------------------------fig.2-----------------------------

play2X
(1&2)
|1|-------------------| |-------------------------------|
|2|-------------------| |-------------------------------|
|3|-------------------| |-------------------------------|
|4|-------------------|%|-------------------------------|
|5|--2--/7---------2--| |--2--/7---------5---4---4-5-4-2|
|6|--0-----6-5---0-0--| |--0-----6-5---0-3-0-2-0-2-3-2-0|
             ~~~~                  ~~~~  ...............

{verse}
[ Tab from: http://www.guitartabs.cc/tabs/m/metallica/enter_sandman_tab_ver_15.html ]
play2X
(1&2)
|1|-----------------| |-------------------------------|
|2|-----------------| |-------------------------------|
|3|-----------------| |-------------------------------|
|4|-----------------|%|-------------------------------|
|5|--------------/7-| |--------------5---4---4-5-4-2--|
|6|--0-0-0-0-0-0----| |--0-0-0-0-0-0-3-0-2-0-2-3-2-0--|
     ...........         ...........................
say your prayers little one. don't forget, my son. to
include every one. tuck you in, warm within. keep you free
from sin. till the sandman he comes.

some thing's wrong, shut the light. heavy thoughts tonight,
and they aren't of snow white.
{pre-chorus and chorus}

play4X
(1&2)
|1|---|--------------------|  |1|--------------------|
|2|---|--------------------|  |2|--------------------|
|3|---|-----2--------------|  |3|----2---------------|
|4|---|--4-----------4-----|  |4|--4-------4---------|
|5|---|--------3--2--------|  |5|------3-2-----------|
|6|-2-|-----------------2--|  |6|------------2--14\--|
         .
sleep with one eye open. gripping your pillow tight.

hush little baby, don't say a word. and never mind that noise you heard. its just the
beast under your bed, in your closet, in your head.

(1&2)                                         (1&2)
|1|-------------------| |-------------| |     |1|-------|
|2|-------------------| |-------------| |     |2|-------|
|3|-------------------| |-------------| |     |3|-------|
|4|----------4--------|%|-----4-------|%|     |4|--x-x--|
|5|--4--4-3--2-----4--| |-4-3-2----2--| |     |5|--x-x--|
|6|--2-------------2--| |----------0--| |     |6|--x-x--|
exit light. enter night(guitar 2 play fill 1) |   grain of 
take my hand.(guitar 2 play fill 2)            |      sand
                                                |||||||||||
fill1 for(2)      fill2 for(2)
|1|---------------|---------------|
|2|---------------|---------------|
|3|------2---4----|----------2----|
|4|--5-2---2---5--|--5-2-3-0---2--|
|5|---------------|---------------|
|6|---------------|---------------|
     .......         .......


(1&2)
|1|-------------------|
|2|-------------------|
|3|-------------------|
|4|-------------------|       after this riff go back to 
|5|--5---4---4/5-4-2--|       fig.2 and play it all over
|6|--3-0-2-0-2/3-2-0--|       again.
     .......
off to never never land.


{solo}   solo is played by guitar 2 and guitar 1 backs it with playing frome fig.2 to
the end of the chorus.i know the solo but i don't wanna take the time to type it so we 
will just skip it.

play8X                             
(1)                                  
|1|---|--------------------|      
|2|---|--------------------|         
|3|---|--------------------|         
|4|---|-----5--------------|       
|5|---|--7-----------7-----|         
|6|-0-|--------6--5-----0--|      
no i lay me down to sleep. pray the lord my soul to keep.
if i die befor i wake. pray the lord my soul take.

thats it tell me how it sounds  later.rj
Comments