Metallica - Enter Sandman Chords & Tabs

 

Enter Sandman Chords & Tabs

Metallica Chords & Tabs

Version: 14 Type: Tab 0 ratings
1 star 2 stars 3 stars 4 stars 5 stars
comments

Enter Sandman Tab

   
Author/Artist: Metallica
Tittle: Enter Sandman (Intro)
Album: Metallica(black)



1=e 2=b 3=g 4=D 5=A 6=e

 Play this 12 times
|-----------------------------|

 1-----------------------------
 2-----------------------------
 3-----------------------------
 4--------5--------------------
 5-----7-----------7-----------
 6--0--------6--5--------------
_______________________________
                               
 1-----------------------------                                                             
 2-----------------------------
 3-----------------------------
 4-----------------------------
 5-2---------------/7----------
 6-0---0-0-0-0-0-0-------------
      PM---------|
__________________________________
 PLAY THIS 3 TIMES
|-----------------------------|

 1-----------------------------
 2-----------------------------
 3-----------------------------
 4-----------------------------
 5----------------/7-----------
 6-0-0-0-0-0-0-0---------------
  PM------------|
_________________________________
 PLAY THIS 4 TIMES
|-----------------------------|
[ Tab from: http://www.guitartabs.cc/tabs/m/metallica/enter_sandman_tab_ver_14.html ]
 1-----------------------------
 2-----------------------------
 3-----------------------------
 4-----------------------------
 5------/7------------3--------
 6--0-0----6---0-0-0--1--------
   PM--|     
_________________________________
 PLAY THIS EIGHT TIMES
|-----------------------------|

 1-----------------------------
 2-----------------------------
 3-----------------------------
 4-----------------------------
 5-----/7-----------3----------
 6-0-0----6-5--0-0--1----------
     
_________________________________

 1-----------------------------
 2-----------------------------
 3-----------------------------
 4-----------------------------
 5------/7---------------------
 6--0-0-----6-5---0-0----------
        
_________________________________
         play this twice
      |------------------------------------------------------------------|
      |                                                                  |
 |1---|------------------------------------------------------------------|
 |2---|------------------------------------------------------------------|
 |3---|------------------------------------------------------------------|
 |4---|------------------------------------------------------------------|
 |5--2|-2--/7----------2-2-/7---------2-2-/7---------5---4---4--5--4--2--|
 |6--0|-0------6-5--0--0-0-----6-5-0--0-0-----6-5-0--3-0-2-0-2--3--2--0--|
Comments