Metallica - Enter Sandman Chords & Tabs

 

Enter Sandman Chords & Tabs

Metallica Chords & Tabs

Version: 13 Type: Tab 0 ratings
1 star 2 stars 3 stars 4 stars 5 stars
comments

Enter Sandman Tab

   
###########################################################
# This file is the author's own work and represents their interpretation of the  # # song. You may only use this file for private study, scholarship, or research.  #
###########################################################
Enter Sandman: by Metallica

Tab Symbols
#####################
 h  = Hammer On
 p  = Pull Off
 ~  = Sustain
 v  = Vibrato
 w  = Wide Vibrato
 b  = Bend Up
 hb  = Bend Halfway
 /  = Slide Up
 \  = Slide Down
 *  = Trill
 x  = Muted Note
 h  = Harmonic
 t  = Right Hand Tap
 :  = Let Ring
 () = Optional
#####################
Guitar
e|---------------------------------------------------0--|
B|---------------------------------------------------0--|
G|---------------------------------------------------0--|
D|-------------5-------------------------------------2--|
A|----------7-----------7-------------------------------|
E|---0--(0)--------6--5-----0---------------------------|
    PLAY riff 8 times

e|--(0)------------(0)----------------------------(0)---|
B|--(0)------------(0)----------------------------(0)---|
G|--(0)------------(0)----------------------------(0)---|
D|--(2)------------(2)----------------------------(2)---|
A|------------------------------------------------------|
E|------------------------------------------------------|


e|(0)-----(0)-------------------------------------------|
B|(0)-----(0)-------------------------------------------|
G|(0)-----(0)-------------------------------------------|
D|(2)-----(2)------------------------------5------------|
A|--------------------------------------7---------7---2-|
E|---------------------------------(0)--------6-------0-|


e|------------------------------------------------------|
B|------------------------------------------------------|
G|------------------------------------------------------|
D|------------------------------------------------------|
A|-(2)-------------/7---------------/7------------------|
E|-(0)-0-0-0-0-0-0------0-0-0-0-0-0-0-------------------|


e|------------------------------------------------------|
B|------------------------------------------------------|
G|------------------------------------------------------|
D|------------------------------------------------------|
A|-----/7----------3------------------------------------|
E|-0-0----6-0-0-0--1------------------------------------|


e|------------------------------------------------------|
B|------------------------------------------------------|
G|------------------------------------------------------|
D|------------------------------------------------------|
A|----/7----------3--------/7----------2--(2)--/7-------|
E|0-0----6-5-0-0--1----0-0----6-5-0-0--0--(0)------6-5--|


e|------------------------------------------------------|
B|------------------------------------------------------|
G|------------------------------------------------------|
D|------------------------------------------------------|
A|----2--(2)--2--/7---------2--(2)--/7----------5-------|
E|-0--0--(0)--0------6-5-0--0--(0)------6-5--0--3-------|

e|------------------------------------------------------|
B|------------------------------------------------------|
G|------------------------------------------------------|
D|------------------------------------------------------|
A|-(5)----4-----4--5--2---(2)---------------3-----------|
E|-(3)-0--2--0--2--3--0---(0)--0-0-0-0-0-0--1-----------|

e|------------------------------------------------------|
B|------------------------------------------------------|
G|------------------------------------------------------|
D|------------------------------------------------------|
A|----------------3-----------------5-------------------|
E|-0-0-0-0-0-0-0--1--0-0-0-0-0-0-0--3-------------------|


e|------------------------------------------------------|
B|------------------------------------------------------|
G|------------------------------------------------------|
D|------------------------------------------------------|
A|-(5)-----4---4--5--4--4--2--(2)--------------3--------|
E|-(3)--0--2-0-2--3--2--2--0--(0)-0-0-0-0-0-0--1--------|

e|------------------------------------------------------|
B|------------------------------------------------------|
G|------------------------------------------------------|
D|------------------------------------------------------|
A|-------------------3-----------------------5----------|
E|-0-0-0--0--0--0-0--1---0-0-0--0--0--0--0---3----------|

e|------------------------------------------------------|
B|------------------------------------------------------|
G|-------------------------------------2----------------|
D|-----------------------------------4----------4-------|
A|-(5)-----4-----4--5--4------------------3--2----------|
E|-(3)--0--2--0--2--3--2--2------(2)----------------2---|


e|------------------------------------------------------|
B|------------------------------------------------------|
G|--------2---------------------------------------------|
D|-----4------------------------------4-----------------|
A|-----------3-2------------4---4--3--2-----------4-----|
E|-(2)-------------14\------2---------------------2-----|

e|------------------------------------------------------|
B|------------------------------------------------------|
G|------------------------------------------------------|
D|--------------4----------------------4----------------|
A|-(4)----4--3--2-----4--(4)----4--3---2--------2-------|
E|-(2)----------------2--(2)--------------------0-------|

e|------------------------------------------------------|
B|------------------------------------------------------|
G|------------------------------------------------------|
D|-----------------------------4------------------------|
A|---(2)------------4----4--3--2-----2-(2)--------------|
E|---(0)------------2----------------0-(0)--------------|


e|------------------------------------------------------|
B|------------------------------------------------------|
G|------------------------------------------------------|
D|------------------------------------------------------|
A|-5-----4-----4-/-5--4--2------------------------------|
E|-3--0--2--0--2-/-3--2--0------------------------------|
                 sl
e|------------------------------------------------------|
B|------------------------------------------------------|
G|------------------------------------------------------|
D|------------------------------------------------------|
A|------------------------------------------------------|
E|------------------------------------------------------|

e|------------------------------------------------------|
B|------------------------------------------------------|
G|------------------------------------------------------|
D|------------------------------------------------------|
A|-5-----4-----4/5--5--2--(2)-----------------2---------|
E|-3--0--2--0--2/3--3--0--(0)-----------------0---------|


e|------------------------------------------------------|
B|--15--15--15--12------12-------------------12--12-----|
G|------------------14-----------14---(14)--------------|
D|------------------------------------------------------|
A|------------------------------------------------------|
E|------------------------------------------------------|

e|------------------------------------------------------|
B|-----15----15--(15)\----------------------------------|
G|-14--------------------12/14-14-14-14\12-12-12-12/14--|
D|------------------------------------------------------|
A|------------------------------------------------------|
E|------------------------------------------------------|
[ Tab from: http://www.guitartabs.cc/tabs/m/metallica/enter_sandman_tab_ver_13.html ]
e|------------------------------------------------------|
B|-14-14-14-14\12-12-12---------------------------------|
G|-------------------------14-12------------------------|
D|-------------------------------14--14-12--------------|
A|-----------------------------------------14---14-12\10|
E|------------------------------------------------------|


e|--------------12-12-12-----12-12-12----12-12-12-------|
B|-----------15-----------15----------15----------------|
G|------------------------------------------------------|
D|------------------------------------------------------|
A|------------------------------------------------------|
E|-12--(12)---------------------------------------------|

e|-----12-12-12-----12-12-12-15-12--12-15-12-12-15-12---|
B|-15------------15-------------------------------------|
G|------------------------------------------------------|
D|------------------------------------------------------|
A|------------------------------------------------------|
E|------------------------------------------------------|

e|-12-12-14-14------17--14------17--14------17--14------|
B|--------------------------15----------15--------------|
G|------------------------------------------------------|
D|------------------------------------------------------|
A|------------------------------------------------------|
E|------------------------------------------------------|


e|-19--15------19--15------19-15--21--17------21--17----|
B|---------17----------17-----------------17------------|
G|------------------------------------------------------|
D|------------------------------------------------------|
A|------------------------------------------------------|
E|------------------------------------------------------|

e|---21--17-----22------(22)----------------------------|
B|-17--------17------------------(9)---9-----9----9-----|
G|-------------------------------(9)---9-----9----9-----|
D|------------------------------------------------------|
A|------------------------------------------------------|
E|------------------------------------------------------|

e|------------------------------------------------------|
B|--------------10--(10)------10--8-7---7/8\7-----------|
G|-7-9--------7-----------------------9-----------------|
D|--------7-9-------------------------------------------|
A|------------------------------------------------------|
E|------------------------------------------------------|


e|------------------------------------------------------|
B|---7--------------------------------------------------|
G|-9----9-7----7------9--7------------------------------|
D|-----------9-------------9--7---7-9-7-----------------|
A|------------------------------9-------9--8-7----------|
E|----------------------------------------------10--7\--|

e|------------------------------------------------------|
B|------------------------------------------------------|
G|-16---14--------14-16---14---------14--16---14--------|
D|-----------16----------------16-----------------16----|
A|------------------------------------------------------|
E|------------------------------------------------------|

e|------------------------------------------------------|
B|---------14---------17-----17----------17-------------|
G|-16--16--------16------16-----16------------16--(16)--|
D|------------------------------------------------------|
A|------------------------------------------------------|
E|------------------------------------------------------|


e|21-17----21-17----21-17----21-17----21-17----21-17----|
B|------17-------17-------17-------17-------17-------17-|
G|------------------------------------------------------|
D|------------------------------------------------------|
A|------------------------------------------------------|
E|------------------------------------------------------|

e|---22--22-22-22---22-22-22-----(22)-------------------|
B|---------------------------------------10--8-7--------|
G|------------------------------------------------9-----|
D|------------------------------------------------------|
A|------------------------------------------------------|
E|------------------------------------------------------|

e|------------------------------------------------------|
B|------------------------------------------------------|
G|-9-7--------------------------------------------------|
D|-----9---9-7-5---7----5-------------------------------|
A|------------------------7---7------------5--7---------|
E|------------------------------------------------------|


e|------------------------------------------------------|
B|------------------------------------------------------|
G|------------------------------------------------------|
D|------------------------------------------------------|
A|-----4----(4)-------0---2------------------(2)--------|
E|------------------------------------------------------|

e|------------------------------------------------------|
B|------------------------------------------------------|
G|------------------------------------------------------|
D|------------------------------------------------------|
A|--(2)-------------------------------------------------|
E|-------------------0----------------------------------|

e|------------------------------------------------------|
B|------------------------------------------------------|
G|------------------------------------------------------|
D|------------------------------------------------------|
A|-5-----4-----4/5---5--2--(2)----------2---(2)-2-/7----|
E|-3--0--2--9--2/3---3--0--(0)----------0---(0)-0-------|


e|------------------------------------------------------|
B|------------------------------------------------------|
G|------------------------------------------------------|
D|------------------------------------------------------|
A|-----------2-----(2)--2--/7-----------------2---------|
E|-6--5---0--0-----(0)--0------6--5-------0---0---------|

e|------------------------------------------------------|
B|------------------------------------------------------|
G|------------------------------------------------------|
D|------------------------------------------------------|
A|-(2)----/7--------------2--(2)--2--/7---------------5-|
E|-(0)--0-----6--5----0---0--(0)--0-------6--5----0---3-|

e|------------------------------------------------------|
B|------------------------------------------------------|
G|------------------------------------------------------|
D|------------------------------------------------------|
A|-(5)-------4-------4---5---4--2-----------------------|
E|-(3)---0---2---0---2---3---2--0-----------------------|


e|------------------------------------------------------|
B|------------------------------------------------------|
G|------------------------------------------------------|
D|------------------------------------------------------|
A|-(2)----/7----------------3--------/7---------------3-|
E|-(0)--0------6--5--0--0---1--0--0-------6--5--0--0--1-|

e|------------------------------------------------------|
B|------------------------------------------------------|
G|------------------------------------------------------|
D|------------------------------------------------------|
A|---------/7-------------------3------------/7---------|
E|-0---0--------6---0---0---0---1----0---0--------------|

e|------------------------------------------------------|
B|------------------------------------------------------|
G|------------------------------------------------------|
D|------------------------------------------------------|
A|------------------------------------------------------|
E|-0----0----0----0----0-----0--------------------------|
Comments