Metallica - Enter Sandman Chords & Tabs

 

Enter Sandman Chords & Tabs

Metallica Chords & Tabs

Version: 5 Type: Bass Tab 0 ratings
1 star 2 stars 3 stars 4 stars 5 stars
comments

Enter Sandman Bass Tab

this is right trust me and its reral easy.

intro
G----------------- 
D-----5-----------x8
A---7------------- 
E-0-----65-------- 



G----------------- 
D-----------------x4
A-5/7------------- 
E-----0000000----- 


G----------------- 
D-----------------x8
A-7--------------- 
E---65---00-1-00-- 


G----------------------------------------
D----------------------------------------x2
A----7---------7---------7--------------- 
E-00---65---00---65---00--65---3-020232--

G---------------------------------------- 
D----------------------------------------x2
A---------------------------------------- 
E-00000001--00000001--0000000-3-020232--- 

G-----2------------ 
D----4-------------x4
A------------------ 
E--2----32--------- 
[ Tab from: http://www.guitartabs.cc/tabs/m/metallica/enter_sandman_btab_ver_5.html ]
G------------------------------------------------------------
D------------------------------------------------------------
A----32----32---32-(guitar solo)---32--(guitar solo)---------
E-2------2----2---0--------------2---0---------------3-020232

start back at this and repeat.
G----------------------------------------
D----------------------------------------x2
A----7---------7---------7--------------- 
E-00---65---00---65---00--65---3-020232--

G---------------------------------------- 
D----------------------------------------x2
A---------------------------------------- 
E-00000001--00000001--0000000-3-020232--- 

G-----2------------ 
D----4-------------x4
A------------------ 
E--2----32--------- 

G------------------------------------------------------------
D------------------------------------------------------------
A----32----32---32-(guitar solo)---32--(guitar solo)---------
E-2------2----2---0--------------2---0---------------3-020232
Comments