Metallica - Enter Sandman Chords & Tabs

 

Enter Sandman Chords & Tabs

Metallica Chords & Tabs

Version: 2 Type: Bass Tab 0 ratings
1 star 2 stars 3 stars 4 stars 5 stars
comments

Enter Sandman Bass Tab

title:enter sanman
artist:metalica
email proskatr1229@aol.com

intro
e------------------------
a------------------------ x13
d------------------------
g-000000003--------------

intro
e-------------------------
a---5----------5----------x3
d--7----------7-----------
g-0---7-6----0---7-6------

intro
e---------------------
a----------------------
d----------------------
g---3-0-2-0-2/3-0--------

[ Tab from: http://www.guitartabs.cc/tabs/m/metallica/enter_sandman_btab_ver_2.html ]
chorus
e-----------------------------------------------
a------------------5----------------------------x2
d-----------------7-----------------------------
g-00000000-5-3-5----7-6---5-3-5-9-9-7-7-5-5-3-3-0


chorus 2
e----------------------------------------------------
a---5----------5----------5--------------------------
d--7----------7----------7---------------------------
g-0---7-6----0---7-6----0---7-6---3-0-2-0-2/3-0------




do this during the gutar solo
e----------------------------
a----5-----------------------
d---7------------------------
g--0---7-6------------------


THAT IS ALL I KNOW ANY QUESTIONS EMAIL ME AT PROSKATR1229@AOL.COM
Comments