Metallica - Enter Sandman Acoustic Chords & Tabs

 

Enter Sandman Acoustic Chords & Tabs

Metallica Chords & Tabs

Version: 1 Type: Tab 0 ratings
1 star 2 stars 3 stars 4 stars 5 stars
comments

Enter Sandman Acoustic Tab

Band - Metallica
Song - Enter Sandman (Acoustic)

*******************************
Key:
/      - slide up
\      - slide down
p      - pull off
h      - hammer on
x      - mute
b(1/4) - bend a quarter tone up
~      - vibrato
*******************************

  (0:00) Intro:
E|--------------------------|----------------------|----------------------|-------------------0--|
B|--------------------------|----------------------|----------------------|-------------------0--|
G|--------------------------|----------------------|----------------------|-------------------0--|
D|---------5----------------|-----5----------------|-----5----------------|-----5-------------5--|
A|------7-------------7-----|--7-------------7-----|--7-------------7-----|--7-------------7--7--|
E|--0---------6--5-------0--|--------6--5-------0--|--------6--5-------0--|--------6--5-------0--|

E|--------------------------|----------------------|----------------------|-------------------0--|
B|--------------------------|----------------------|----------------------|-------------------0--|
G|--------------------------|----------------------|----------------------|-------------------0--|
D|---------5----------------|-----5----------------|-----5----------------|-----5-------------5--|
A|------7-------------7-----|--7-------------7-----|--7-------------7-----|--7-------------7--7--|
E|--0---------6--5-------0--|--------6--5-------0--|--------6--5-------0--|--------6--5-------0--|

  (1:59)
E|--/7-----/7-/9---9\-7-----/10----12\-|
B|--/8-----/8-/10--10\8-----/11----12\-|
G|-------9--------------9--------------|
D|-------------------------------------|
A|-------------------------------------|
E|-------------------------------------|

  (2:09)
E|-------------------------------------|
B|--12b(1/4)---12b(1/4)---12b(1/4)-----|
G|--12b(1/4)---12b(1/4)---12b(1/4)\9~--|
D|-------------------------------------|
A|-------------------------------------|
E|-------------------------------------|

  (2:42) Solo:
E|-----------------------------------------------------------------------------------------------|
B|-/3--3--3------------/3--3--3------3/5--5~--8/10-10-10-10\8-8-8-8/10-10-10-10\8-8-8--10p8------|
G|-/4--4--4--2--4--2---/4--2--2--2p0----------x-x--x--x--x--x-x-x-x-x--x--x--x--x-x-x-------9-9p7|
D|--------------------------------------------5/7--7--7--7\-5-5-5-5/7--7--7--7\-5-5-5------------|
A|-----------------------------------------------------------------------------------------------|
E|-----------------------------------------------------------------------------------------------|
[ Tab from: http://www.guitartabs.cc/tabs/m/metallica/enter_sandman_acoustic_tab.html ]
E|-----------------------------------------------------------------------------------------------|
B|-----------------/5-5-5-5-5-5-5-5-5-5-5-5-5-5-5-5---5-5-5-5h8p5---5h8p5---5h8p5---5h8p5-5-7-7--|
G|----------------------------------------------------------------7-------7-------7--------------|
D|-9--9p7----------------------------------------------------------------------------------------|
A|--------10--7~---------------------------------------------------------------------------------|
E|-----------------------------------------------------------------------------------------------|

E|-----------------------------------------9p5---9p5---9p5-9/12~---------------------------------|
B|--10p7---10p7---10p7/12p8---12p8---12p8------5-----5---------------/10---/10-----/10--/10---/10|
G|-------7------7-----------9------9---------------------------------/11---/11-----/11--/11---/11|
D|-----------------------------------------------------------------------------------------------|
A|-----------------------------------------------------------------------------------------------|
E|-----------------------------------------------------------------------------------------------|

E|------------------------------------------------------------------------/9----------/9---------|
B|-----------10~--10-8-7---8p7---7-------------------------------------------10----10----10----10|
G|7--------7-------------9-----9---9-7---7--9p7---------------------------------11----------11---|
D|--9~-7h9-----------------------------9--------9p7---7-9p7--------------------------------------|
A|--------------------------------------------------9-------9-8-7-5------------------------------|
E|------------------------------------------------------------------7--5\------------------------|

E|--/9----------/9----------/9-12--/9-12----/9-12--/12----------------------|
B|-----10----10----10---10-------------------------/14---/14-14---14-14-13--|
G|--------11----------11----------------------------------------------------|
D|--------------------------------------------------------------------------|
A|--------------------------------------------------------------------------|
E|--------------------------------------------------------------------------|

E|--9p5-0-9p5-0-9p5-0-9p5-0-9p5---9p5-0--/12--12-12-12--12-12-12~----5p3-------------------------|
B|-----------------------------------------------------------------------5-5--5p3----------------|
G|--------------------------------------------------------------------------------4--4p2----4----|
D|---------------------------------------------------------------------------------------5-------|
A|-----------------------------------------------------------------------------------------------|
E|-----------------------------------------------------------------------------------------------|

E|-----------------------------------------------------------------------------------------------|
B|-----------------------------------------------------------------------------------------------|
G|-----------------------------------------------------------------------------------------------|
D|--5p2~-----------0h2p0-------------------------------------------------------------------------|
A|-------------------------4~--------------0----2----2~-2~-2~-2~-2~-2~---2~-2~-2~-2~-2~-2~-2~----|
E|----------------------------------------------7----7~-7~-7~-7~-7~-7~---7~-7~-7~-7~-7~-7~-7~-0--|
Comments