Metallica - Dirty Window Chords & Tabs

 

Dirty Window Chords & Tabs

Metallica Chords & Tabs

Version: 8 Type: Tab 0 ratings
1 star 2 stars 3 stars 4 stars 5 stars
comments

Dirty Window Tab

Dirty Window
By Metallica
From the album St. Anger

Dropped C Tuning

CGCFAD

                       
D|----------------------|
A|----------------------|
F|----------------------|
C|----------------------|play x6
G|----------------------|
C|-0-0-0-0--0--0--0-0--0|
(Listen to song for exact rythym)


                          
D|-------------------------|
A|-------------------------|
F|-------------------------|
C|-------------------------|play x5
G|-------------------5-----|
C|-0-3-5-0-3-5-0-3-5---6-5-|


D|---------------|
A|---------------|
F|---------------|
C|---------------|play once
G|-0----0-3----3-|
C|-0----0-3----3-|

D|-------------------------|
A|-------------------------|
F|-------------------------|
C|-------------------------|play x4 
G|-------------------5-----|
C|-0-3-5-0-3-5-0-3-5---6-5-|

D|---------------|
A|---------------|
F|---------------|
C|---------------|play once
G|-0----0-3----3-|
C|-0----0-3----3-|

D|-------------------------|
A|-------------------------|
F|-------------------------|
C|-------------------------|play twice
G|-------------------5-----|
C|-0-3-5-0-3-5-0-3-5---6-5-|
  pm-----------------------

D|-------------------------|
A|-------------------------|
F|-------------------------|
C|-------------------------|play x3
G|-------------------------|
C|-0-3-5-0-------0-3-5-7~~~|
-
D|-------------------------------------------------|
A|-------------------------------------------------|
F|-------------------------------------------------|
C|-------------------------------------------------|play once
G|-3-6-8-0-------3-6-8-------3-6-8-0---------------|
C|-3-6-8-0-------3-6-8-10~~--3-6-8-0---0-3-5-0-3-5-|

D|-------------------------|
A|-------------------------|
F|-------------------------|
C|-------------------------|play x2
G|-------------------5-----|
C|-0-3-5-0-3-5-0-3-5---6-5-|

D|--------------------------------------------|
A|--------------------------------------------|
F|-2---2--2p0--0h3p2--------------------------|
C|-0---3--------------------------------------|play twice
G|--------------------------------------5-----|
C|--------------------0-3-5-0-3-5-0-3-5---6-5-|



D|---------|              D|--------------|
A|---------|              A|--------------|
F|---------|              F|--------------|
C|---------|play x2 then: C|--------------| 
G|-0-3-5-0-|              G|--------5-----|
C|-0-3-5-0-|              C|--0-3-5---6-5-|


D|---------|              D|--------------|
A|---------|              A|--------------|
F|---------|              F|--------------|
C|---------|play x3 then: C|--------------| play x2
G|-0-3-5-0-|              G|--------5-----|
C|-0-3-5-0-|              C|--0-3-5---6-5-|

D|----------------------|
A|----------------------|
F|----------------------|
C|----------------------|play twice
G|----------------------|
C|-0-0-0-0--0--0--0-0--0|

D|-------------------------|
A|-------------------------|
F|-------------------------|
C|-------------------------|play x4 
G|-------------------5-----|
C|-0-3-5-0-3-5-0-3-5---6-5-|
[ Tab from: http://www.guitartabs.cc/tabs/m/metallica/dirty_window_tab_ver_8.html ]
D|---------------|
A|---------------|
F|---------------|
C|---------------|play once
G|-0----0-3----3-|
C|-0----0-3----3-|

D|-------------------------|
A|-------------------------|
F|-------------------------|
C|-------------------------|play twice
G|-------------------5-----|
C|-0-3-5-0-3-5-0-3-5---6-5-|
  pm-----------------------

D|-------------------------|
A|-------------------------|
F|-------------------------|
C|-------------------------|play x3
G|-------------------------|
C|-0-3-5-0-------0-3-5-7~~~|
-
D|-------------------------------------------------|
A|-------------------------------------------------|
F|-------------------------------------------------|
C|-------------------------------------------------|play once
G|-3-6-8-0-------3-6-8-------3-6-8-0---------------|
C|-3-6-8-0-------3-6-8-10~~--3-6-8-0---0-3-5-0-3-5-|

D|-------------------------|
A|-------------------------|
F|-------------------------|
C|-------------------------|play x2
G|-------------------5-----|
C|-0-3-5-0-3-5-0-3-5---6-5-|

D|--------------------------------------------|
A|--------------------------------------------|
F|-2---2--2p0--0h3p2--------------------------|
C|-0---3--------------------------------------|play twice
G|--------------------------------------5-----|
C|--------------------0-3-5-0-3-5-0-3-5---6-5-|



D|---------|              D|--------------|
A|---------|              A|--------------|
F|---------|              F|--------------|
C|---------|play x2 then: C|--------------| 
G|-0-3-5-0-|              G|--------5-----|
C|-0-3-5-0-|              C|--0-3-5---6-5-|


D|---------|              D|--------------|
A|---------|              A|--------------|
F|---------|              F|--------------|
C|---------|play x3 then: C|--------------| play x2
G|-0-3-5-0-|              G|--------5-----|
C|-0-3-5-0-|              C|--0-3-5---6-5-|

D|----------------------|
A|----------------------|
F|----------------------|
C|----------------------|play x18
G|----------------------|
C|-0-0-0-0--0--0--0-0--0|

D|-------------------------|
A|-------------------------|
F|-------------------------|
C|-------------------------|play x2
G|-------------------5-----|
C|-0-3-5-0-3-5-0-3-5---6-5-|

D|--------------------------------------------|
A|--------------------------------------------|
F|-2---2--2p0--0h3p2--------------------------|
C|-0---3--------------------------------------|play twice
G|--------------------------------------5-----|
C|--------------------0-3-5-0-3-5-0-3-5---6-5-|



D|---------|              D|--------------|
A|---------|              A|--------------|
F|---------|              F|--------------|
C|---------|play x2 then: C|--------------| 
G|-0-3-5-0-|              G|--------5-----|
C|-0-3-5-0-|              C|--0-3-5---6-5-|


D|---------|              D|--------------|
A|---------|              A|--------------|
F|---------|              F|--------------|
C|---------|play x3 then: C|--------------| play x2
G|-0-3-5-0-|              G|--------5-----|
C|-0-3-5-0-|              C|--0-3-5---6-5-|



D|----------------------|
A|----------------------|
F|----------------------|
C|----------------------|play x24
G|----------------------|
C|-0-0-0-0--0--0--0-0--0|
Comments