Metallica - Dirty Window Chords & Tabs

 

Dirty Window Chords & Tabs

Metallica Chords & Tabs

Version: 6 Type: Tab 3 ratings
1 star 2 stars 3 stars 4 stars 5 stars
comments

Dirty Window Tab

   
Song – Dirty window
Band – Metallica
Tabber – Kirkhammett393

Tuning: eb,Bb,Gb,Db,Ab,Db 


Intro riff:

eb|-------------------------------------------------------------------------------------|
Bb|-------------------------------------------------------------------------------------|
Gb|-------------------------------------------------------------------------------------|
Db|-------------------------------------------------------------------------------------|
Ab|-------------------------------------------------------------------------------------|
Db|-2-2-2-2-2-2-222---------------------------------------------------------------------|
   |-----PM--------|
          
  Main riff:                                 Riff B:
eb|------------------------------------|------------------------------------------------|
Bb|------------------------------------|------------------------------------------------|
Gb|------------------------------------|------------------------------------------------|
Db|------------------------------------|------------------------------------------------|
Ab|----------------------------5-------|--3----3p0—3/5---5---5-5------------------------|
Db|-0--3--5--0--3--5--0--3--5-----6--5-|--3----3p0—3/5---5---5—5------------------------|

Main riff PM:

eb|-------------------------------------------------------------------------------------|
Bb|-------------------------------------------------------------------------------------|
Gb|-------------------------------------------------------------------------------------|
Db|-------------------------------------------------------------------------------------|
Ab|----------0--------0--------5--------------------------------------------------------|
Db|-0--3--5--0--3--5--0--3--5-----6--5--------------------------------------------------|
   |--PM---|   |-PM-|   |-----PM------|

Verse 2:
[ Tab from: http://www.guitartabs.cc/tabs/m/metallica/dirty_window_tab_ver_6.html ]
eb|-----------------------------|-------------------------------------------------------|
Bb|-----------------------------|-------------------------------------------------------|
Gb|-----------------------------|-------------------------------------------------------|
Db|--0--3--5--0----0--3--5------|--3--6--8--3----3--6--8--------3--6--8--3---3-6-8-3-6-8|
Ab|--0--3--5--0----0--3--5------|--3--6--8--3----3--6--8--------3--6--8--3---3-6-8-3-6-8|
Db|--0--3--5--0----0--3--5—6hb--|--3--6--8--3----3--6--8—9hb----3--6--8--3---3-6-8-3-6-8|

Bridge:

eb|-------------------------------------------------------------------------------------|
Bb|-------------------------------------------------------------------------------------|
Gb|-------------------------------------------------------------------------------------|
Db|--7--------3--7--5----7/8-7----------------------------------------------------------|
Ab|-----------0--0--3--------------------------------------5----------------------------|
Db|-----------------------------0--3--5--0--3--5--0--3--5-----6--5----------------------|

Bridge part 2:

eb|-------------------------------------------------------------------------------------|
Bb|-------------------------------------------------------------------------------------|
Gb|-------------------------------------------------------------------------------------|
Db|--0--3--5--0----0--3--5--0----0--3--5----------0--3--5-------------------------------|
Ab|--0--3--5--0----0--3--5--0----0--3--5--5-------0--3--5--5----------------------------|
Db|--0--3--5--0----0--3--5--0----0--3--5----6--5--0--3--5-----6--5----------------------|

Song:
Intro riff x6
Main riff x5
Riff B
Main riff x4
Riff B
Main riff PM x2
Verse 2 x3
Verse 2 part 2
Main riff x2
Bridge x2
Bridge part 2 x2
Intro riff x2
Main riff x4
Riff B
Main riff PM x2
Verse 2 x3
Verse 2 part 2
Bridge x2
Bridge part 2 x2
Intro riff x18
Main riff x2
Bridge x2
Bridge 2 x2
Intro riff x24






   




Comments