Metallica - Dirty Window Chords & Tabs

 

Metallica Chords & Tabs

Version: 1 Type: Tab 0 ratings
1 star 2 stars 3 stars 4 stars 5 stars
comments

Dirty Window Tab

   
-------------------------------------------------------------------------------
			     Dirty Window - MetallicA
-------------------------------------------------------------------------------

Tabbed by: André vitória
Email: sr_andre@sapo.pt

Tuning: 1/2 step down all strings

Intro:
G#|---------------------------------------------------------------------------|
A#|---------------------------------------------------------------------------|
F#|---------------------------------------------------------------------------|
C#|---------------------------------------------------------------------------|
G#|---------------------------------------------------------------------------|
D#|-00000-0-0-0-0-------------------------------------------------------------|

Main riff:
G#|---------------------------------------------------------------------------|
A#|---------------------------------------------------------------------------|
F#|---------------------------------------------------------------------------|
C#|---------------------------------------------------------------------------|
G#|-------------------7-------------------------------------------------------|
D#|-0-3-5-0-3-5-0-3-5---6-5---------------------------------------------------|

"This house is clean,baby..."
G#|---------------------------------------------------------------------------|
A#|---------------------------------------------------------------------------|
F#|---------------------------------------------------------------------------|
C#|-5-----7-------------------------------------------------------------------|
G#|-5-----7-------------------------------------------------------------------|
D#|-3-----5-------------------------------------------------------------------|

"Am I who I think I am?"
G#|---------------------------------------------------------------------------|
A#|---------------------------------------------------------------------------|
F#|---------------------------------------------------------------------------|
C#|-2--5--7--2----2--5--7-----------------------------------------------------|
G#|-2--5--7--2----2--5--7-----------------------------------------------------|
D#|-0--3--5--0----0--3--5---5h6p5~~-------------------------------------------|
[ Tab from: http://www.guitartabs.cc/tabs/m/metallica/dirty_window_tab.html ]
"I'm judge and I'm juri..."
G#|---------------------------------------------------------------------------|
A#|---------------------------------------------------------------------------|
F#|---------------------------------------------------------------------------|
C#|-9-----9-7--10-9-----------------------------------------------------------|
G#|-7--10---5-------------------------7---------------------------------------|
D#|-----------------0-3-5-0-3-5-0-3-5---6-5-----------------------------------|

"Look at my window..."
G#|---------------------------------------------------------------------------|
A#|---------------------------------------------------------------------------|
F#|---------------------------------------------------------------------------|
C#|---------------------------------------------------------------------------|
G#|-4----7-9--4----4-7-9------------------------------------------------------|
D#|-2----5-7--2----2-5-7--8h9p8-----------------------------------------------|

",,,slam my gravel down!"
G#|---------------------------------------------------------------------------|
A#|---------------------------------------------------------------------------|
F#|---------------------------------------------------------------------------|
C#|---------------------------------------------------------------------------|
G#|-4-7-9-4-7-9---------------------------------------------------------------|
D#|-2-5-7-2-5-7---------------------------------------------------------------|

"I... I... I..."
G#|---------------------------------------------------------------------------|
A#|---------------------------------------------------------------------------|
F#|---------------------------------------------------------------------------|
C#|-x-x-x-x-x---x-x--x-x------------------------------------------------------|
G#|-x-x-x-x-x---x-x--x-x------------------------------------------------------|
D#|-x-x-x-x-x---x-x--x-x------------------------------------------------------|



That's all,there are no more riffs,the last ones are repeated from above...






| /  slide up
| \  slide down
| h  hammer-on
| p  pull-off
| ~  vibrato
| +  harmonic
| x  Mute note

===============================================================================
Comments