Metallica - Dirty Window Chords & Tabs

 

Dirty Window Chords & Tabs

Metallica Chords & Tabs

Version: 2 Type: Bass Tab 0 ratings
1 star 2 stars 3 stars 4 stars 5 stars
comments

Dirty Window Bass Tab

Dirty Window
By Metallica
From

|-x-x-x-x--x--x--x-x--x|
|-x-x-x-x--x--x--x-x--x|Play x3
|-x-x-x-x--x--x--x-x--x|
|-x-x-x-x--x--x--x-x--x|


|-------------------------|
|-------------------------|play x5
|-------------------5-----|
|-0-3-5-0-3-5-0-3-5---6-5-|


Glenn x1


|-------------------------|
|-------------------------|play x4 
|-------------------5-----|
|-0-3-5-0-3-5-0-3-5---6-5-|


Glenn x1


|-------------------------|
|-------------------------|play twice
|-------------------5-----|
|-0-3-5-0-3-5-0-3-5---6-5-|


|-------------------------|
|-------------------------|play x3
|-------------------------|
|-0-3-5-0-------0-3-5-6---|


|-------------------------------------------------|
|-------------------------------------------------|play once
|-------------------------------------------------|
|-0-3-5-0-------0-3-5-7----0-3-5-0---0-3-5-0-3-5--|


|-------------------------|
|-------------------------|play x2
|-------------------5-----|
|-0-3-5-0-3-5-0-3-5---6-5-|


Glenn|-------------------------|
     |-------------------------|play x2
     |-------------------5-----|
     |-0-3-5-0-3-5-0-3-5---6-5-|


|---------|              |--------------|
|---------|play x2 then: |--------------| 
|---------|              |--------5-----|
|-0-3-5-0-|              |--0-3-5---6-5-|


|---------|              |--------------|
|---------|play x3 then: |--------------| play x2
|---------|              |--------5-----|
|-0-3-5-0-|              |--0-3-5---6-5-|


|-x-x-x-x--x--x--x-x--x|
|-x-x-x-x--x--x--x-x--x|Play x2
|-x-x-x-x--x--x--x-x--x|
|-x-x-x-x--x--x--x-x--x|


|-------------------------|
|-------------------------|play x4 
|-------------------5-----|
|-0-3-5-0-3-5-0-3-5---6-5-|


Glenn x1

[ Tab from: http://www.guitartabs.cc/tabs/m/metallica/dirty_window_btab_ver_2.html ]
|-------------------------|
|-------------------------|play twice
|-------------------5-----|
|-0-3-5-0-3-5-0-3-5---6-5-|


|-------------------------|
|-------------------------|play x3
|-------------------------|
|-0-3-5-0-------0-3-5-6---|


|-------------------------------------------------|
|-------------------------------------------------|play once
|-------------------------------------------------|
|-0-3-5-0-------0-3-5-7----0-3-5-0---0-3-5-0-3-5--|


|-------------------------|
|-------------------------|play x2
|-------------------5-----|
|-0-3-5-0-3-5-0-3-5---6-5-|


Glenn|-------------------------|
     |-------------------------|play x2
     |-------------------5-----|
     |-0-3-5-0-3-5-0-3-5---6-5-|



|---------|              |--------------|
|---------|play x2 then: |--------------| 
|---------|              |--------5-----|
|-0-3-5-0-|              |--0-3-5---6-5-|


|---------|              |--------------|
|---------|play x3 then: |--------------| play x2
|---------|              |--------5-----|
|-0-3-5-0-|              |--0-3-5---6-5-|


|-x-x-x-x--x--x--x-x--x|
|-x-x-x-x--x--x--x-x--x|Play x6
|-x-x-x-x--x--x--x-x--x|
|-x-x-x-x--x--x--x-x--x|


|-------------------------|
|-------------------------|play x2
|-------------------5-----|
|-0-3-5-0-3-5-0-3-5---6-5-|


Glenn|-------------------------|
     |-------------------------|play x2
     |-------------------5-----|
     |-0-3-5-0-3-5-0-3-5---6-5-|


|---------|              |--------------|
|---------|play x2 then: |--------------| 
|---------|              |--------5-----|
|-0-3-5-0-|              |--0-3-5---6-5-|


|---------|              |--------------|
|---------|play x3 then: |--------------| play x2
|---------|              |--------5-----|
|-0-3-5-0-|              |--0-3-5---6-5-|


|-x-x-x-x--x--x--x-x--x|
|-x-x-x-x--x--x--x-x--x|Play x
|-x-x-x-x--x--x--x-x--x|
|-x-x-x-x--x--x--x-x--x|
Comments