Metallica - Die Die My Darling Chords & Tabs

 

Die Die My Darling Chords & Tabs

Metallica Chords & Tabs

Version: 2 Type: Tab 0 ratings
1 star 2 stars 3 stars 4 stars 5 stars
comments

Die Die My Darling Tab

Album: Garage Inc. (1998)
Tuning: 1/2 a step down (Eb Tuning)
Notes: This was originally done by The Misfits in 1984. I hope you understand
all of this... it's pretty basic but tragically there's no solo's... but I guess
you could add one if you really wanted to... either way it's a great song!
Go Heavy Or Go Home!

Intro/Chorus Riff
(x3)
|------------------------------------|
|------------------------------------|
|--4--4--4--4--4--4--4--4------------|
|--4--4--4--4--4--4--4--4--5----4----|
|--2--2--2--2--2--2--2--2--5----4----|
|--------------------------3----2----|
Chorus ending:
|--0~~~~---------------------------------------------------------|
|--0~~~~---------------------------------------------------------|
|--0~~~~--4----------------------------------4-4-4-4-4-4-4-4--4--|
|--2~~~~--4---------------------------4-2~~--2-2-2-2-2-2-2-2--2--|
|--2~~~~--2-2-2-2-2-2-2-2-2-2-2-2-2-2-2-2~~--2-2-2-2-2-2-2-2--2--|
|--0~~~~--------------------------------0~~--0-0-0-0-0-0-0-0--0--|
OR          pm.......................|       pm release.....|
|----------------------------------------------------------------|
|----------------------------------------------------------------|
|--9~~~~--4----------------------------------4-4-4-4-4-4-4-4--4--|
|--9~~~~--4---------------------------4-2~~--2-2-2-2-2-2-2-2--2--|
|--7~~~~--2-2-2-2-2-2-2-2-2-2-2-2-2-2-2-2~~--2-2-2-2-2-2-2-2--2--|
|--0~~~~--------------------------------0~~--0-0-0-0-0-0-0-0--0--|
                                             pm release.....|
[ Tab from: http://www.guitartabs.cc/tabs/m/metallica/die_die_my_darling_tab_ver_2.html ]
Verse
(x6)
|-------------------------------------------------|
|--4----------------------------------------------|
|--4-4-4-4-4-4-4-4-4-4-4-4-4-4-4-4-------7---6----|
|--4-4-4-4-4-4-4-4-4-4-4-4-4-4-4-4-5-----7---6----|
|--2-2-2-2-2-2-2-2-2-2-2-2-2-2-2-2-5-----5---4----|
|----------------------------------3--------------|
|    pm...........................|               |
|-------------------------------------------------|
|-------------------------------------------------|
|--4---4---4---4---4---4---4---4---------7-7-6-6--|
|--4---4---4---4---4---4---4---4---5-----7-7-6-6--|
|--2---2---2---2---2---2---2---2---5-----5-5-4-4--|
|----------------------------------3--------------|

Chorus riff (x2 - w/Chorus ending)

Verse Again (Verse Riff x6)

Chorus riff (x2 - w/Chorus ending)

HELLLLL
|---------------------------------------------------------|
|---------------------------------------------------------|
|--4--4--4--4--4--4--4--4--4--4--4--4--4~~~~~~~~~~~~~~~~--|
|--4--4--4--4--4--4--4--4--4--4--4--4--4~~~~~~~~~~~~~~~~--|
|--2--2--2--2--2--2--2--2--2--2--2--2--2~~~~~~~~~~~~~~~~--|
|---------------------------------------------------------|
|                                                         |
|-------------------------------------------------------14|
|-------------------------------------------12-12-12-12-12|
|--4--4--4--4--4--4--4--4--4--4--4--4--4------------------|
|--4--4--4--4--4--4--4--4--4--4--4--4--4------------------|
|--2--2--2--2--2--2--2--2--2--2--2--2--2------------------|
|---------------------------------------------------------|

N E Comments, corrections etc... then just e-mail me at apocalypze_13@hotmail.com
Comments