Metallica - Die Die My Darling Chords & Tabs

 

Die Die My Darling Chords & Tabs

Metallica Chords & Tabs

Version: 3 Type: Bass Tab 0 ratings
1 star 2 stars 3 stars 4 stars 5 stars
comments

Die Die My Darling Bass Tab

   
Tuning: Standard
Low to High: (E, A, D, G)

* = Hold Note

Riff 1:
|---------------------------------------|
|---------------------------------------|
|-1-1-1-1-1-1-1-1-----------------------|
|------------------2-2-2-2-2--1-1-1-1-1-|

Riff 2:
|----------------------------------------------------|
|----------------------------------------------------|
|---------------------------1-1--1-1-1--1-1-1--1-1-1-|
|-0-0--0-0-0--0-0-0--0-0-0---------------------------|
[ Tab from: http://www.guitartabs.cc/tabs/m/metallica/die_die_my_darling_btab_ver_3.html ]
|-------------------------------|
|-------------------------------|
|-------------------------------|
|-0-0--0-0-0--2-2-2-2-2-2-2-2-2-|

Riff 3:
|----------------------------------------------------|
|----------------------------------------------------|
|-1-1--1-1-1--1-1-1--1-1-1--------------4-4-4--3-3-3-|
|---------------------------2-2--2-2-2---------------|

Outro:
|----------------|
|----------------|
|-1-1-1-1-1-1-1*-|
|----------------|


Order:

Riff 1: 3x
Riff 2: 1x
Riff 3: 6x
Riff 1: 2x
Riff 2: 1x
Riff 3: 6x
Riff 1: 2x
Riff 2: 1x
Outro
Comments