Metallica - Die Die My Darling Chords & Tabs

 

Die Die My Darling Chords & Tabs

Metallica Chords & Tabs

Version: 1 Type: Bass Tab 0 ratings
1 star 2 stars 3 stars 4 stars 5 stars
comments

Die Die My Darling Bass Tab

Song: Die, die my darling
Band: MetallicA (original Glenn Danzing)
Album: Garage Inc.

Transcribed by Eros Fratini (e-r-o-s@libero.it)

--------------------------------- -BASS- ----------------------------------

Tune down 1/2 step

Fig.1 (first without voice)
Gb:-----------------|-----------------|-----------------|-----------------:
Db:-----------------|-----------------|-----------------|-----------------:
Ab:-2-------2-------|-2-------2-------|-----------------|-----------------:
Eb:-----2-------2---|-----2-------2-2-|-3---3-3-3-3-3-3-|-2-2-2-2-2-2-2-2-:

Chorus: Repeat Fig.1  2 times with last bar variation:  |-----------------:
         						|-----------------:
							|-----------------:
							|-2---2-2-2-3-2-0-:

Fill.1
Gb:-----------------|-----------------|-----------------|-----------------|
Db:-----------------|-----------------|-----------------|-----------------|
Ab:-----------------|---------7---7---|-2-2-2-2-2-2-2-2-|-2-2-0-0---------|
Eb:-0---0-0-0-0-0-0-|-0-0-0-0---0---0-|-----------------|---------2-2-1-1-|
[ Tab from: http://www.guitartabs.cc/tabs/m/metallica/die_die_my_darling_btab.html ]
Gb:-----------------|-----------------|-----------------:
Db:-----------------|-----------------|-----------------:
Ab:-----7-----7-7-7-|-----------------|-----------------:
Eb:-0---0-----------|-3-3-3-3-3-3-3-3-|-3---------------: end Fill.1

Fig.2
Gb:-----------------|-----------------|-----------------|-----------------:
Db:-----------------|-----------------|-----------------|-----------------:
Ab:-2-2-2-2-2-2-2-2-|-2-2-2-2-2-2-2-0-|-----------------|-5-5-5-5-4-4-4-4-:
Eb:-----------------|-----------------|-3---3-3-3-3-3-3-|-----------------:

Repeat Fig.2  6 times total	
Repeat Chorus
Repeat Fill.1
Repeat Fig.2  6 times
Repeat Chorus
Repeat Fill.1

Ending:
Gb:-----------------|-----------------|-----------------|-----------------|
Db:-----------------|-----------------|-----------------|-----------------|
Ab:-2-------2-------|-2-------2-------|-2-------2-------|-2-------2-------|
Eb:-----2-------2---|-----2-------2---|-----2-------2---|-----2-------2---|

Gb:-----------------:
Db:-----------------:
Ab:-2---------------:
Eb:-----------------: end.


I would play it to all girls of the world.

Comments