Metallica - Devils Dance Chords & Tabs

 

Devils Dance Chords & Tabs

Metallica Chords & Tabs

Version: 1 Type: Tab 0 ratings
1 star 2 stars 3 stars 4 stars 5 stars
comments

Devils Dance Tab

Devil's dance by Metallica
Tab by hulie

Notation
(b)= bend string (you may play with song to get right pich of bend)
p  = pull off
h  = hammer on
/  = slide to note (unless otherwise stated)
\  = pich dive


all guitars tuned down one whole step(low to high: D G C F A D) and sound even lower.

    bass & drums intro.
|----------------------|---------------x--|------------------x-|----------x-|
|----------------------|---------------x--|------------------x-|----------x-|
|----------------------|------------------|--------------------|------------|
|----------------------|------------------|--------------------|------------|
|----------------------|------------------|---------7(b)-(7)---|------------|
|----------------------|-0-0--------------|-0-0-0-0-5(b)-(5)---|-0-0--------|

in the next three sections the sequence of 7's between the brackets you have to
bend and hold the note throughout the bracket. listen to the song as you play
you'll get it.
                                                  
|----------------------|------------------------|---------------------------|
|----------------------|------------------------|---------------------------|
|----------------------|-------------5-(5)------|---------------------------|
|----------------------|-------------5-(5)---5-7|-(7--7-7--7-7--7-7)--5(b)--|
|----------------------|-5h7-7-7-7-7-------7----|-------------------------7-|
|-0-0-0-0--------------|------------------------|---------------------------|

                                               
|---------------|----------------------------|-------------------------------|
|---------------|----------------------------|-------------------------------|
|---------------|--------------5-(5)---------|-------------------------------|
|---------------|--------------5-(5)-----5-7-|-(7--7-7--7-7--7-7)--(7)--5(b)-|
|----(5)h7------|--5h7-7-7-7-7--------7------|-----------------------------7-|
|---------------|----------------------------|-------------------------------|

|-------------------------------|
|-------------------------------|
|-------------------------------|
|-(7--7-7--7-7--7-7)--(7)--5(b)-|
|-----------------------------7-|
|-------------------------------|
          
|-------|--w/bar>>>>>|>>>>>>>>>>|>>>>>>>>>>>>>>-------|
|-------|------------|----------|---------------------|
|-------|--feedback>>|>>>>>>>>>-|---------------------|
|-------|------------|----------|---------------------|
|--5h7--|--7---------|--(7)-----|-(7)--(7)--(7)--/7---|
|-------|------------|----------|-------------------6-|

|------------------|-----------------|-------------------|------------------|
|------------------|-----------------|-------------------|------------------|
|------------------|-----------------|-------------------|------------------|
|------------------|-----------------|-------------------|------------------|
|------------/7----|-----------/7----|------------/7-----|------------/7----|
|-(6)--(6)------5--|-(5)--(5)-----6--|-(6)--(6)-------5--|-(6)--(6)------6--|

|-----------------|--------------------|--------------|---------------------|
|-----------------|--------------------|--------------|---------------------|
|-----------------|--------------------|--------------|---------------------|
|-----------------|--------------------|--------------|---------------------|
|-----/7----/7----|-/7------------/7---|-/7-----/7----|-/7------------------|
|-(6)----5-----6--|----5--3(b)--0----6-|-----5-----6--|----5-3(b)-0-3(b)-0--|

1st verse

  Yeah            i feel you too                     feel        those etc..
|-----------------------|------------------------|------------------------|
|-----------------------|------------------------|------------------------|
|-----------------------|------------------------|------------------------|
|-----------------------|------------------------|------------------------|
|-------------5---------|--------------5---------|--------------5---------|
|-0-0-0-0---0-3--0-0-0--|--0-0-0-0---0-3--0-0-0--|--0-0-0-0---0-3--0-0-0--|

|-----------------------------|---------------------------|------------------------------|
|-----------------------------|---------------------------|------------------------------|
|-----------------------------|---------------------------|------------------------------|
|-----------------------------|---------------------------|------------------------------|
|-------------5---------------|-5-5-5-5--5-5--5-5--5-5--5-|-5-5-5-5--5-5--5-5------------|
|-0-0-0-0---0-3--0-5(b)-(5)-3-|-3-3-3-3--3-3--3-3--3-3--3-|-3-3-3-3--3-3--3-3-5(b)-(5)-3-|

|-----------------------|-----------------------------|---------------------------|
|-----------------------|-----------------------------|---------------------------|
|-----------------------|-----------------------------|---------------------------|
|-----------------------|-----------------------------|---------------------------|
|-------------5---------|-------------5---------------|-5-5-5-5--5-5--5-5--5-5--5-|
|-0-0-0-0---0-3--0-0-0--|-0-0-0-0---0-3--0-5(b)-(5)-3-|-3-3-3-3--3-3--3-3--3-3--3-|

 seeds i   plant will grow
||--------------------------|------------------------|-----------------------------||
||--------------------------|------------------------|-----------------------------||
||--------------------------|------------------------|-----------------------------||
||--------------------------|------------------------|-----------------------------||
||--------------------14/8--|----/14/7------/14/8----|----/14/7--------------------||
||--------------------12/6--|----/12/5------/12/6----|----/12/5--3(b)--0--3(b)--0--||
||                                                                                 ||
||                                                                                 ||
||                                                                                 ||
||--------------------------|------------------------|-----------------------------||
||--------------------------|------------------------|-----------------------------||
||--------------------------|------------------------|-----------------------------||
||--------------------------|------------------------|-----------------------------||
||--4-4-4-4--4-4--4-4-/7----|----/7---------/7-------|----/7-----------------------||
||--2-2-2-2--2-2--2-2----6--|-------5-----------6----|--------5--3(b)--0--3(b)--0--||


1st chorus
    one           day   you will        see                                and
||------------------------------------------|--------------------------------------||
||------------------------------------------|--------------------------------------||
||------------------------------------------|--------------------------------------||
||------------------------------------------|--------------------------------------||
||--8---------8---------8-------------------|------------5--------5----------------||
||--6---6--6--6---6--6--6---6--6--(6)/5---3-|--0----0----3--------3----0----3------||
||                                                                                 ||
||                                                                                 ||
||                                                                                 ||
||------------------------------------------|--------------------------------------||
||------------------------------------------|--------------------------------------||
||------------------------------------------|--------------------------------------||
||------------------------------------------|--------------------------------------||
||------------------------------------------|------------5--------5----------------||
||-/6---6--6--6---6--6--6---6--6--(6)/5---3-|--0----0----3--------3----0----3------||

                                                     come on     now 
   dare   to come down    to me                 yeah       come on  take  the chance 
|-------------------------------|-------------------|-------------------------------|
|-------------------------------|-------------------|-------------------------------|
|-------------------------------|-------------------|-------------------------------|
|-------------------------------|-------------------|-/5------5------5--------------|
|--8------8------8--------------|--------5--5-------|-/5--5-5-5--5-5-5--5-5---------|
|--6--6-6-6--6-6-6--6-6-(6)/5-3-|--0--0--3--3--0--3-|-/6--6-6-6--6-6-6--6-6-(6)/5-3-|


                   thats right       lets dance
|------------------------------|-------------------|--------------------------------|
|------------------------------|-------------------|--------------------------------|
|------------------------------|-------------------|--------------------------------|
|------------------------------|-------------------|-8--------/14/7--------/14/8----|
|------------5----5------------|-/5----------------|--------------------------------|
|--0----0----3----3----0----3--|-/6----------------|-6--------/12/5--------/12/6----|


|----------------------------------|------------------|-----------------------------|
|----------------------------------|------------------|-----------------------------|
|----------------------------------|------------------|-----------------------------|
|-(8)----/14/7-------------/14/8---|--/14/7----/14/8--|--/14/7----------------------|
|----------------------------------|------------------|-----------------------------|
|-(6)----/12/5--3(b)---0---/12/6---|--/12/5----/12/6--|--/12/5---3(b)--0--3(b)--0---|

2nd & 3rd verses

 2. snake       i am the snake etc......

 3. yeah        i feel you too etc......
|-----------------------|------------------------|------------------------|
|-----------------------|------------------------|------------------------|
|-----------------------|------------------------|------------------------|
|-----------------------|------------------------|------------------------|
|-------------5---------|--------------5---------|--------------5---------|
|-0-0-0-0---0-3--0-0-0--|--0-0-0-0---0-3--0-0-0--|--0-0-0-0---0-3--0-0-0--|

|-----------------------------|---------------------------|------------------------------|
|-----------------------------|---------------------------|------------------------------|
|-----------------------------|---------------------------|------------------------------|
|-----------------------------|---------------------------|------------------------------|
|-------------5---------------|-5-5-5-5--5-5--5-5--5-5--5-|-5-5-5-5--5-5--5-5------------|
|-0-0-0-0---0-3--0-5(b)-(5)-3-|-3-3-3-3--3-3--3-3--3-3--3-|-3-3-3-3--3-3--3-3-5(b)-(5)-3-|

||-----------------------|-----------------------------|---------------------------||
||-----------------------|-----------------------------|---------------------------||
||-----------------------|-----------------------------|---------------------------||
||-----------------------|-----------------------------|---------------------------||
||-------------5---------|-------------5---------------|-5-5-5-5--5-5--5-5--5-5--5-||
||-0-0-0-0---0-3--0-0-0--|-0-0-0-0---0-3--0-5(b)-(5)-3-|-3-3-3-3--3-3--3-3--3-3--3-||
||                                                                                 ||
||                                                                                 ||
||-----------0-----------|-----------------------------|----------0----------------||
||----------------0------|---grad. press w/bar---------|---------------0-----------||
||-------0---------------|------------(0)\-------------|-------0-------------------||
||-----------------------|-----------------------------|---------------------------||
||-----------------------|-----------------------------|---------------------------||
||-----------------------|-----------------------------|---------------------------||

[ Tab from: http://www.guitartabs.cc/tabs/m/metallica/devils_dance_tab.html ]
 2.hunger    i       will feed
 
 3.seeds  i  plant   will grow
|-----------0-----------------|------------------|-----------------------------|
|----------------0------------|------------------|-----------------------------|
|-------0---------------------|------------------|-----------------------------|
|----------------------/14/8--|--/14/7----/14/8--|--/14/7------------/14/8-----|
|--4--4-----------------------|------------------|-----------------------------|
|--2--2----------------/12/6--|--/12/5----/12/6--|--/12/5---3(b)--0--/12/6-----|


2nd & 3rd choruses
|------------------------------|-----------------------|------------------------------|
|------------------------------|-----------------------|------------------------------|
|------------------------------|-----------------------|------------------------------|
|------------------------------|-----------------------|------------------------------|
|-8------8------8--------------|-------5--5------------|-8------8------8--------------|
|-6--6-6-6--6-6-6--6-6-(6)/5-3-|-0--0--3--3--0--3------|-6--6-6-6--6-6-6--6-6-(6)/5-3-|


|--------------------------|--------------------------------|-------------------------|
|--------------------------|--------------------------------|-------------------------|
|--------------------------|--------------------------------|-------------------------|
|--------------------------|--/5------5------5--------------|-------------------------|
|----------5----5----------|--/5--5-5-5--5-5-5--5-5---------|---------5----5----------|
|--0---0---3----3---0---3--|--/6--6-6-6--6-6-6--6-6-(6)/5-3-|-0---0---3----3---0---3--|



       come dance     ah                                      yeah      come   dancin'
|-----------------------|--------------------------------|----------------------------|
|-----------------------|--------------------------------|----------------------------|
|-----------------------|---------------5--(5)(b)--------|----------------------------|
|-----------------------|---------------5--(5)(b)---5--7-|-(7(b)-7-7--7-7--7-7--(7))--|
|--/5-------------------|--5h7--7-7-7-7-----------7------|--------------------------7-|
|--/6-------------------|--------------------------------|----------------------------|


guitar solo

 w/dist. and use digitech whammy pedal(if possible) set to raise one octave when pressed
 forward otherwise try using pitch shifter.
|----------------------------------------|-------------------------|------------------|
|----------------------------------------|-----grad. dive----------|------------------|
|----(12-0)/12tr-------------------------|-(0-12)\\\\\\\\\\\\\\\\\\|\\\\\\\\\\\\\\\\\\|
|----------------------------------------|-------------------------|------------------|
|-begin trill with pedal pressed forward-|-grad. rock pedal back---|------------------|
|----------------------------------------|-------------------------|------------------|


|------------------------0(b)--|-(0)----15--15--------------|-0(b)-(0)-15-15-15/17-15-|
|------------------------0(b)--|-(0)----17--17--17(17)-(17)-|-0(b)-(0)-17-17-------17-|
|-\\\\(0 12)---0---(0)/--0(b)--|-(0)-vib. w/bar next 4 bars-|-0(b)-(0)----------------|
|--------------0---(0)/--------|----------------------------|-------------------------|
|---------raise and lower pitch with pedal------------------|-------------------------|
|------------------------------|----------------------------|-------------------------|

solo continues into the the 3rd chorus and throught to the last few bars of the song
the riff for the chorus is the same as before.
                                                         3rd chorus

                                                          one day     you      will see
|-0(b)--(0)--15---0(b)-(0)-15-|-0(b)-(0)-15-17-17-15----|-------------------------------|
|-0(b)--(0)--17---0(b)-(0)-17-|-0(b)-(0)-17-17-17-17-0/-|-14(b)-14(b)-14(b)-------------|
|-0(b)--(0)-------0(b)-(0)----|-0(b)-(0)-------------0/-|-14(b)-14(b)-14(b)-------------|
|-----------------------------|-------------------------|--------------------12-14/12---|
|-raise and lower pitch pedal-|-------------------------|------------------14--------14-|
|-----------------------------|-------------------------|-------------------------------|


                       and  dare    to    come   down     to me
|-------------------------|------------------------------------|------------------------|
|----------12--(12)(b)----|-14(b)-14-14-14-14-14(b)------------|------------12(b)-12(b)-|
|----------12--(12)(b)----|-14(b)-14-14-14-14-14(b)-14/12------|------------12(b)-12(b)-|
|-12/14-14-------------14-|------------------------------14-12-|-14-14-14-14------------|
|-------------------------|------------------------------------|------------------------|
|-------------------------|------------------------------------|------------------------|

|----------------------------------------------|---------------------------------------------|
|------------------12-12----------------12--12-|---------------------------------------------|
|-14(b)-14-14-14-14-14-14(b)-14-14-14-14--14---|-14(b)-14-14-14-14-14-14-14-14/12---------12-|
|----------------------------------------------|--------------------------------14-12-14-14--|
|----------------------------------------------|---------------------------------------------|
|----------------------------------------------|---------------------------------------------|

||--------------------------------------|------------------------|----------------------||
||--14--(14)(b)-(14)(b)-(14)(b)-(14)(b)-|-(14)(b)\\\\\\\\\\\\\\\\|\\\\\\\\\\\\\\\\\\\\\-||
||--14--(14)(b)-(14)(b)-(14)(b)-(14)(b)-|-(14)(b)\\\\\\\\\\\\\\\\|\\\\\\\\\\\\\\\\\\\\\-||
||--------------------------------------|------------------------|----------------------||
||-------use w/bar here-----------------|-grad. raise pitch one o|ctave with pedal------||
||--------------------------------------|------------------------|----------------------||
||                                                                                      ||
||                                                                                      ||
||--------------------------------------|------------------------|----------------------||
||--------------------------------------|------------------------|----------------------||
||--------------------------------------|------------------------|----------------------||
||--------------14/8--------------------|-----------------/14/7--|----------------/14/8-||
||--7-----------------------------------|------------------------|----------------------||
||--5-----------12/6--------------------|-----------------/12/5--|----------------/12/6-||


||---------------------------------------|-------------------0-----0--------------------||
||--14\\\\\\\\\\\\\\\\\\\\\\\\\\\\\\\\\\\|\\\\\\\\\\\\\\\----0-----0--------------------||
||--14\\\\\\\\\\\\\\\\\\\\\\\\\\\\\\\\\\\|\\\\\\\\\\\\\\\----0-----0--------------------||
||---------------------------------------|----------------------------------------------||
||--grad. lower pitch back down----------|----------------------------------------------||
||---------------------------------------|----------------------------------------------||
||                                                                                      ||
||                                                                                      ||
||---------------------------------------|----------------------------------------------||
||---------------------------------------|----------------------------------------------||
||---------------------------------------|----------------------------------------------||
||------------------------------14/7-----|----------------------------------------/14/8-||
||--(8)----------------------------------|----------------------------------------------||
||--(6)-------------------------12/5-----|----------------------------------------/12/6-||


||---------------------------------------|---------12-------12--------------------------||
||---------------------------------------|------12----15(b)----15-12----------14--------||
||--2---------2p0---0--2--0--------------|-14(b)---------------------14-12-------12-x-x-||
||----------------2---------2-0-2-2------|---------------------------------14-------x-x-||
||---------------------------------------|----------------------------------------------||
||---------------------------------------|----------------------------------------------||
||                                                                                      ||
||                                                                                      ||
||---------------------------------------|----------------------------------------------||
||---------------------------------------|----------------------------------------------||
||---------------------------------------|----------------------------------------------||
||------------14/7---------------/14/8---|----14/7-------------------------------/14/8--||
||--(8)----------------------------------|----------------------------------------------||
||--(6)-------12/5---------------/12/6---|----12/5-------3(b)--------0-----------/12/6--||


||--------------------------------------------------------------------------------------||
||-------------------------\\\\\\\\\\\\\\\\\\\\\\\\\\\\\\\\\\\\\\\\\\\\\\\\\\\\\\\\\\\\\||
||--14p12--14p12--14p12--14p12---------14p12--------------------------------------------||
||--------------------------------------------------------------------------------------||
||-------------------------grad. raise pich back up one octave--------------------------||
||--------------------------------------------------------------------------------------||
||                                                                                      ||
||                                                                                      ||
||--------------------------------------------------------------------------------------||
||--------------------------------------------------------------------------------------||
||--------------------------------------------------------------------------------------||
||----------------------/14/7---------------------------------------/14/8---------------||
||--(8)---------------------------------------------------------------------------------||
||--(6)-----------------/12/5---------------------------------------/12/6---------------||


|----------------------------------------------------------0\\\\\\\\\\\\\\\\\\\\\\\\\--|
|\\\\\\\\\\\\\\\\\\\\\\\\\\\\\\\\\\\\\\\\\\\\\\\\\\\\\-----0\\\\\\\\\\\\\\\\\\\\\\\\\--|
|--14p12---------------------------------------------------0\\\\\\\\\\\\\\\\\\\\\\\\\--|
|--------------------------------------------------------------------------------------|
|grad. raise pich back up one octave-----------------------Pull pedal back all the way-|
|--------------------------------------------------------------------------------------|

        lets dance                                                      Mmm       it's
|--------------------------|--------------------------------|-------------------------|
|--------------------------|--------------------------------|-------------------------|
|--------------------------|--------------------------------|-------------------------|
|--------------------------|--8----/14/7---------/14/8------|-/14/7-------------------|
|---/5---------------------|--------------------------------|-------------------------|
|--------------------------|--6----/12/5---------/12/6------|-/12/5--3(b)--0--3(b)--0-|


  nice   to see you           here            ha   ha
|------------------------------|-----------------------|------------------------------|
|------------------------------|-----------------------|------------------------------|
|------------------------------|-----------------------|------------------------------|
|------------------------------|-----------------------|-5----------------------------|
|-8------8------8--------------|--------5-----5--------|-5----------------------------|
|-6--6-6-6--6-6-6--6-6-(6)/5-3-|--0--0--3-----3--0--3--|------------------------------|


thats it hope you enjoy.
Comments